  0
SECTION
  2
HEADER
  9
$ACADVER
  1
AC1012
  9
$DWGCODEPAGE
  3
ansi_1252
  9
$INSBASE
 10
0.0
 20
0.0
 30
0.0
  9
$EXTMIN
 10
1.000000000000000E+20
 20
1.000000000000000E+20
 30
1.000000000000000E+20
  9
$EXTMAX
 10
-1.000000000000000E+20
 20
-1.000000000000000E+20
 30
-1.000000000000000E+20
  9
$LIMMIN
 10
0.0
 20
0.0
  9
$LIMMAX
 10
420.0
 20
297.0
  9
$ORTHOMODE
 70
     0
  9
$REGENMODE
 70
     1
  9
$FILLMODE
 70
     1
  9
$QTEXTMODE
 70
     0
  9
$MIRRTEXT
 70
     1
  9
$DRAGMODE
 70
     2
  9
$LTSCALE
 40
1.0
  9
$OSMODE
 70
    37
  9
$ATTMODE
 70
     1
  9
$TEXTSIZE
 40
2.5
  9
$TRACEWID
 40
1.0
  9
$TEXTSTYLE
  7
STANDARD
  9
$CLAYER
  8
0
  9
$CELTYPE
  6
BYLAYER
  9
$CECOLOR
 62
   256
  9
$CELTSCALE
 40
1.0
  9
$DELOBJ
 70
     1
  9
$DISPSILH
 70
     0
  9
$DIMSCALE
 40
1.0
  9
$DIMASZ
 40
2.5
  9
$DIMEXO
 40
0.625
  9
$DIMDLI
 40
3.75
  9
$DIMRND
 40
0.0
  9
$DIMDLE
 40
0.0
  9
$DIMEXE
 40
1.25
  9
$DIMTP
 40
0.0
  9
$DIMTM
 40
0.0
  9
$DIMTXT
 40
2.5
  9
$DIMCEN
 40
2.5
  9
$DIMTSZ
 40
0.0
  9
$DIMTOL
 70
     0
  9
$DIMLIM
 70
     0
  9
$DIMTIH
 70
     0
  9
$DIMTOH
 70
     0
  9
$DIMSE1
 70
     0
  9
$DIMSE2
 70
     0
  9
$DIMTAD
 70
     1
  9
$DIMZIN
 70
     8
  9
$DIMBLK
  1

  9
$DIMASO
 70
     1
  9
$DIMSHO
 70
     1
  9
$DIMPOST
  1

  9
$DIMAPOST
  1

  9
$DIMALT
 70
     0
  9
$DIMALTD
 70
     3
  9
$DIMALTF
 40
0.03937007874016
  9
$DIMLFAC
 40
1.0
  9
$DIMTOFL
 70
     1
  9
$DIMTVP
 40
0.0
  9
$DIMTIX
 70
     0
  9
$DIMSOXD
 70
     0
  9
$DIMSAH
 70
     0
  9
$DIMBLK1
  1

  9
$DIMBLK2
  1

  9
$DIMSTYLE
  2
ISO-25
  9
$DIMCLRD
 70
     0
  9
$DIMCLRE
 70
     0
  9
$DIMCLRT
 70
     0
  9
$DIMTFAC
 40
1.0
  9
$DIMGAP
 40
0.625
  9
$DIMJUST
 70
     0
  9
$DIMSD1
 70
     0
  9
$DIMSD2
 70
     0
  9
$DIMTOLJ
 70
     0
  9
$DIMTZIN
 70
     8
  9
$DIMALTZ
 70
     0
  9
$DIMALTTZ
 70
     0
  9
$DIMFIT
 70
     3
  9
$DIMUPT
 70
     0
  9
$DIMUNIT
 70
     2
  9
$DIMDEC
 70
     2
  9
$DIMTDEC
 70
     2
  9
$DIMALTU
 70
     2
  9
$DIMALTTD
 70
     3
  9
$DIMTXSTY
  7
STANDARD
  9
$DIMAUNIT
 70
     0
  9
$LUNITS
 70
     2
  9
$LUPREC
 70
     4
  9
$SKETCHINC
 40
1.0
  9
$FILLETRAD
 40
10.0
  9
$AUNITS
 70
     0
  9
$AUPREC
 70
     0
  9
$MENU
  1
.
  9
$ELEVATION
 40
0.0
  9
$PELEVATION
 40
0.0
  9
$THICKNESS
 40
0.0
  9
$LIMCHECK
 70
     0
  9
$CHAMFERA
 40
0.0
  9
$CHAMFERB
 40
0.0
  9
$CHAMFERC
 40
0.0
  9
$CHAMFERD
 40
0.0
  9
$SKPOLY
 70
     0
  9
$TDCREATE
 40
2457961.440035961
  9
$TDUPDATE
 40
2457961.440037766
  9
$TDINDWG
 40
0.0000000116
  9
$TDUSRTIMER
 40
0.0000000116
  9
$USRTIMER
 70
     1
  9
$ANGBASE
 50
0.0
  9
$ANGDIR
 70
     0
  9
$PDMODE
 70
     0
  9
$PDSIZE
 40
0.0
  9
$PLINEWID
 40
0.0
  9
$COORDS
 70
     1
  9
$SPLFRAME
 70
     0
  9
$SPLINETYPE
 70
     6
  9
$SPLINESEGS
 70
     8
  9
$ATTDIA
 70
     0
  9
$ATTREQ
 70
     1
  9
$HANDLING
 70
     1
  9
$HANDSEED
  5
28E
  9
$SURFTAB1
 70
     6
  9
$SURFTAB2
 70
     6
  9
$SURFTYPE
 70
     6
  9
$SURFU
 70
     6
  9
$SURFV
 70
     6
  9
$UCSNAME
  2

  9
$UCSORG
 10
0.0
 20
0.0
 30
0.0
  9
$UCSXDIR
 10
1.0
 20
0.0
 30
0.0
  9
$UCSYDIR
 10
0.0
 20
1.0
 30
0.0
  9
$PUCSNAME
  2

  9
$PUCSORG
 10
0.0
 20
0.0
 30
0.0
  9
$PUCSXDIR
 10
1.0
 20
0.0
 30
0.0
  9
$PUCSYDIR
 10
0.0
 20
1.0
 30
0.0
  9
$USERI1
 70
     0
  9
$USERI2
 70
     0
  9
$USERI3
 70
     0
  9
$USERI4
 70
     0
  9
$USERI5
 70
     0
  9
$USERR1
 40
0.0
  9
$USERR2
 40
0.0
  9
$USERR3
 40
0.0
  9
$USERR4
 40
0.0
  9
$USERR5
 40
0.0
  9
$WORLDVIEW
 70
     1
  9
$SHADEDGE
 70
     3
  9
$SHADEDIF
 70
    70
  9
$TILEMODE
 70
     1
  9
$MAXACTVP
 70
    64
  9
$PINSBASE
 10
0.0
 20
0.0
 30
0.0
  9
$PLIMCHECK
 70
     0
  9
$PEXTMIN
 10
1.000000000000000E+20
 20
1.000000000000000E+20
 30
1.000000000000000E+20
  9
$PEXTMAX
 10
-1.000000000000000E+20
 20
-1.000000000000000E+20
 30
-1.000000000000000E+20
  9
$PLIMMIN
 10
0.0
 20
0.0
  9
$PLIMMAX
 10
420.0
 20
297.0
  9
$UNITMODE
 70
     0
  9
$VISRETAIN
 70
     1
  9
$PLINEGEN
 70
     0
  9
$PSLTSCALE
 70
     1
  9
$TREEDEPTH
 70
  3020
  9
$PICKSTYLE
 70
     1
  9
$CMLSTYLE
  2
STANDARD
  9
$CMLJUST
 70
     0
  9
$CMLSCALE
 40
20.0
  9
$SAVEIMAGES
 70
     1
  0
ENDSEC
  0
SECTION
  2
CLASSES
  0
CLASS
  1
ACDBDICTIONARYWDFLT
  2
AcDbDictionaryWithDefault
  3
ObjectDBX Classes
 90
    32768
280
     0
281
     0
  0
CLASS
  1
VISUALSTYLE
  2
AcDbVisualStyle
  3
ObjectDBX Classes
 90
     4095
280
     0
281
     0
  0
CLASS
  1
MATERIAL
  2
AcDbMaterial
  3
ObjectDBX Classes
 90
     1153
280
     0
281
     0
  0
CLASS
  1
SCALE
  2
AcDbScale
  3
ObjectDBX Classes
 90
     1153
280
     0
281
     0
  0
CLASS
  1
TABLESTYLE
  2
AcDbTableStyle
  3
ObjectDBX Classes
 90
     4095
280
     0
281
     0
  0
CLASS
  1
MLEADERSTYLE
  2
AcDbMLeaderStyle
  3
ACDB_MLEADERSTYLE_CLASS
 90
     4095
280
     0
281
     0
  0
CLASS
  1
SUN
  2
AcDbSun
  3
SCENEOE
 90
     1153
280
     0
281
     0
  0
CLASS
  1
DICTIONARYVAR
  2
AcDbDictionaryVar
  3
ObjectDBX Classes
 90
        0
280
     0
281
     0
  0
CLASS
  1
XRECORD
  2
AcDbXrecord
  3
ObjectDBX Classes
 90
    32768
280
     0
281
     0
  0
CLASS
  1
LWPOLYLINE
  2
AcDbPolyline
  3
ObjectDBX Classes
 90
    32768
280
     0
281
     1
  0
CLASS
  1
HATCH
  2
AcDbHatch
  3
ObjectDBX Classes
 90
    32768
280
     0
281
     1
  0
CLASS
  1
ACDBPLACEHOLDER
  2
AcDbPlaceHolder
  3
ObjectDBX Classes
 90
        0
280
     0
281
     0
  0
CLASS
  1
LAYOUT
  2
AcDbLayout
  3
ObjectDBX Classes
 90
        0
280
     0
281
     0
  0
ENDSEC
  0
SECTION
  2
TABLES
  0
TABLE
  2
VPORT
  5
8
330
0
100
AcDbSymbolTable
 70
     1
  0
VPORT
  5
29
330
8
100
AcDbSymbolTableRecord
100
AcDbViewportTableRecord
  2
*ACTIVE
 70
     0
 10
0.0
 20
0.0
 11
1.0
 21
1.0
 12
0.0000000000000568
 22
-11.75
 13
0.0
 23
0.0
 14
10.0
 24
10.0
 15
10.0
 25
10.0
 16
0.0
 26
0.0
 36
1.0
 17
0.0
 27
0.0
 37
0.0
 40
249.39
 41
1.979550102249488
 42
50.0
 43
0.0
 44
0.0
 50
0.0
 51
0.0
 71
     0
 72
   100
 73
     1
 74
     3
 75
     0
 76
     0
 77
     0
 78
     0
  0
ENDTAB
  0
TABLE
  2
LTYPE
  5
5
330
0
100
AcDbSymbolTable
 70
     1
  0
LTYPE
  5
14
330
5
100
AcDbSymbolTableRecord
100
AcDbLinetypeTableRecord
  2
BYBLOCK
 70
     0
  3

 72
    65
 73
     0
 40
0.0
  0
LTYPE
  5
15
330
5
100
AcDbSymbolTableRecord
100
AcDbLinetypeTableRecord
  2
BYLAYER
 70
     0
  3

 72
    65
 73
     0
 40
0.0
  0
LTYPE
  5
16
330
5
100
AcDbSymbolTableRecord
100
AcDbLinetypeTableRecord
  2
CONTINUOUS
 70
     0
  3
Solid line
 72
    65
 73
     0
 40
0.0
  0
ENDTAB
  0
TABLE
  2
LAYER
  5
2
330
0
100
AcDbSymbolTable
 70
     4
  0
LAYER
  5
10
330
2
100
AcDbSymbolTableRecord
100
AcDbLayerTableRecord
  2
0
 70
     0
 62
     7
  6
CONTINUOUS
  0
LAYER
  5
6E
330
2
100
AcDbSymbolTableRecord
100
AcDbLayerTableRecord
  2
THICK
 70
     0
 62
     7
  6
CONTINUOUS
  0
LAYER
  5
6F
330
2
100
AcDbSymbolTableRecord
100
AcDbLayerTableRecord
  2
HIDDEN
 70
     0
 62
     7
  6
CONTINUOUS
  0
LAYER
  5
70
330
2
100
AcDbSymbolTableRecord
100
AcDbLayerTableRecord
  2
HASHLINES
 70
     0
 62
     7
  6
CONTINUOUS
  0
ENDTAB
  0
TABLE
  2
STYLE
  5
3
330
0
100
AcDbSymbolTable
 70
     1
  0
STYLE
  5
11
330
3
100
AcDbSymbolTableRecord
100
AcDbTextStyleTableRecord
  2
STANDARD
 70
     0
 40
0.0
 41
1.0
 50
0.0
 71
     0
 42
2.5
  3
txt
  4

  0
ENDTAB
  0
TABLE
  2
VIEW
  5
6
330
0
100
AcDbSymbolTable
 70
     0
  0
ENDTAB
  0
TABLE
  2
UCS
  5
7
330
0
100
AcDbSymbolTable
 70
     0
  0
ENDTAB
  0
TABLE
  2
APPID
  5
9
330
0
100
AcDbSymbolTable
 70
     3
  0
APPID
  5
12
330
9
100
AcDbSymbolTableRecord
100
AcDbRegAppTableRecord
  2
ACAD
 70
     0
  0
APPID
  5
71
330
9
100
AcDbSymbolTableRecord
100
AcDbRegAppTableRecord
  2
DBPROPERTIES
 70
     0
  0
APPID
  5
28D
330
9
100
AcDbSymbolTableRecord
100
AcDbRegAppTableRecord
  2
ACAD_MLEADERVER
 70
     0
  0
ENDTAB
  0
TABLE
  2
DIMSTYLE
  5
A
330
0
100
AcDbSymbolTable
 70
     1
  0
DIMSTYLE
105
27
330
A
100
AcDbSymbolTableRecord
100
AcDbDimStyleTableRecord
  2
ISO-25
 70
     0
  3

  4

  5

  6

  7

 40
1.0
 41
2.5
 42
0.625
 43
3.75
 44
1.25
 45
0.0
 46
0.0
 47
0.0
 48
0.0
140
2.5
141
2.5
142
0.0
143
0.03937007874016
144
1.0
145
0.0
146
1.0
147
0.625
 71
     0
 72
     0
 73
     0
 74
     0
 75
     0
 76
     0
 77
     1
 78
     8
170
     0
171
     3
172
     1
173
     0
174
     0
175
     0
176
     0
177
     0
178
     0
270
     2
271
     2
272
     2
273
     2
274
     3
340
11
275
     0
280
     0
281
     0
282
     0
283
     0
284
     8
285
     0
286
     0
287
     3
288
     0
  0
ENDTAB
  0
TABLE
  2
BLOCK_RECORD
  5
1
330
0
100
AcDbSymbolTable
 70
     0
  0
BLOCK_RECORD
  5
1F
330
1
100
AcDbSymbolTableRecord
100
AcDbBlockTableRecord
  2
*MODEL_SPACE
  0
BLOCK_RECORD
  5
1B
330
1
100
AcDbSymbolTableRecord
100
AcDbBlockTableRecord
  2
*PAPER_SPACE
  0
ENDTAB
  0
ENDSEC
  0
SECTION
  2
BLOCKS
  0
BLOCK
  5
20
330
1F
100
AcDbEntity
  8
0
100
AcDbBlockBegin
  2
*MODEL_SPACE
 70
     0
 10
0.0
 20
0.0
 30
0.0
  3
*MODEL_SPACE
  1

  0
ENDBLK
  5
21
330
1F
100
AcDbEntity
  8
0
100
AcDbBlockEnd
  0
BLOCK
  5
1C
330
1B
100
AcDbEntity
 67
     1
  8
0
100
AcDbBlockBegin
  2
*PAPER_SPACE
 70
     0
 10
0.0
 20
0.0
 30
0.0
  3
*PAPER_SPACE
  1

  0
ENDBLK
  5
1D
330
1B
100
AcDbEntity
 67
     1
  8
0
100
AcDbBlockEnd
  0
ENDSEC
  0
SECTION
  2
ENTITIES
  0
LINE
  5
72
330
1F
100
AcDbEntity
  8
HIDDEN
100
AcDbLine
 10
-96.80000000000001
 20
29.39999999999999
 30
0.0
 11
-96.80000000000001
 21
-0.0000000000000047
 31
0.0
1001
DBPROPERTIES
1002
{
1000
PbHidd
1002
}
  0
LINE
  5
73
330
1F
100
AcDbEntity
  8
HIDDEN
100
AcDbLine
 10
-96.80000000000001
 20
-0.0000000000000119
 30
0.0
 11
-96.80000000000001
 21
-29.40000000000001
 31
0.0
1001
DBPROPERTIES
1002
{
1000
PbHidd
1002
}
  0
LINE
  5
74
330
1F
100
AcDbEntity
  8
HIDDEN
100
AcDbLine
 10
-183.1281485652655
 20
-73.5
 30
0.0
 11
-183.1281485652655
 21
-0.0000000000000034
 31
0.0
1001
DBPROPERTIES
1002
{
1000
PbHidd
1002
}
  0
LINE
  5
75
330
1F
100
AcDbEntity
  8
HIDDEN
100
AcDbLine
 10
-178.146182617407
 20
0.0000000000000048
 30
0.0
 11
-178.146182617407
 21
-78.66307787036646
 31
0.0
1001
DBPROPERTIES
1002
{
1000
PbHidd
1002
}
  0
LINE
  5
76
330
1F
100
AcDbEntity
  8
THICK
100
AcDbLine
 10
-178.146182617407
 20
-0.0000000000000144
 30
0.0
 11
-178.146182617407
 21
-78.66307787036646
 31
0.0
1001
DBPROPERTIES
1002
{
1000
PbThick
1002
}
  0
LINE
  5
77
330
1F
100
AcDbEntity
  8
THICK
100
AcDbLine
 10
-183.1281485652655
 20
-73.5
 30
0.0
 11
-183.1281485652655
 21
-0.0000000000000034
 31
0.0
1001
DBPROPERTIES
1002
{
1000
PbThick
1002
}
  0
LINE
  5
78
330
1F
100
AcDbEntity
  8
HIDDEN
100
AcDbLine
 10
178.146182617407
 20
0.0000000000000048
 30
0.0
 11
178.146182617407
 21
-78.66307787036651
 31
0.0
1001
DBPROPERTIES
1002
{
1000
PbHidd
1002
}
  0
LINE
  5
79
330
1F
100
AcDbEntity
  8
THICK
100
AcDbLine
 10
178.146182617407
 20
-78.66307787036651
 30
0.0
 11
178.146182617407
 21
-0.0000000000000144
 31
0.0
1001
DBPROPERTIES
1002
{
1000
PbThick
1002
}
  0
LINE
  5
7A
330
1F
100
AcDbEntity
  8
HIDDEN
100
AcDbLine
 10
183.1281485652655
 20
0.0000000000000045
 30
0.0
 11
183.1281485652655
 21
-73.5
 31
0.0
1001
DBPROPERTIES
1002
{
1000
PbHidd
1002
}
  0
LINE
  5
7B
330
1F
100
AcDbEntity
  8
THICK
100
AcDbLine
 10
183.1281485652655
 20
-73.5
 30
0.0
 11
183.1281485652655
 21
0.0000000000000045
 31
0.0
1001
DBPROPERTIES
1002
{
1000
PbThick
1002
}
  0
LINE
  5
7C
330
1F
100
AcDbEntity
  8
THICK
100
AcDbLine
 10
235.16
 20
0.0000000000000045
 30
0.0
 11
235.16
 21
73.5
 31
0.0
1001
DBPROPERTIES
1002
{
1000
PbThick
1002
}
  0
LINE
  5
7D
330
1F
100
AcDbEntity
  8
THICK
100
AcDbLine
 10
183.1281433105469
 20
73.5
 30
0.0
 11
235.1600036621094
 21
73.5
 31
0.0
1001
DBPROPERTIES
1002
{
1000
PbThick
1002
}
  0
LINE
  5
7E
330
1F
100
AcDbEntity
  8
THICK
100
AcDbLine
 10
183.1281485652655
 20
0.0000000000000045
 30
0.0
 11
183.1281485652655
 21
73.5
 31
0.0
1001
DBPROPERTIES
1002
{
1000
PbThick
1002
}
  0
LINE
  5
7F
330
1F
100
AcDbEntity
  8
THICK
100
AcDbLine
 10
183.9199981689453
 20
-73.5
 30
0.0
 11
183.1281433105469
 21
-73.5
 31
0.0
1001
DBPROPERTIES
1002
{
1000
PbThick
1002
}
  0
LINE
  5
80
330
1F
100
AcDbEntity
  8
THICK
100
AcDbLine
 10
193.6
 20
-45.14698218042929
 30
0.0
 11
189.6
 21
-45.14698218042929
 31
0.0
1001
DBPROPERTIES
1002
{
1000
PbThick
1002
}
  0
LINE
  5
81
330
1F
100
AcDbEntity
  8
HIDDEN
100
AcDbLine
 10
189.6
 20
-50.54661610830145
 30
0.0
 11
193.6
 21
-50.54661610830145
 31
0.0
1001
DBPROPERTIES
1002
{
1000
PbHidd
1002
}
  0
LINE
  5
82
330
1F
100
AcDbEntity
  8
HIDDEN
100
AcDbLine
 10
193.6
 20
-67.02704230383435
 30
0.0
 11
189.6
 21
-67.02704230383435
 31
0.0
1001
DBPROPERTIES
1002
{
1000
PbHidd
1002
}
  0
LINE
  5
83
330
1F
100
AcDbEntity
  8
HIDDEN
100
AcDbLine
 10
189.6
 20
-68.9273501594251
 30
0.0
 11
193.6
 21
-68.9273501594251
 31
0.0
1001
DBPROPERTIES
1002
{
1000
PbHidd
1002
}
  0
LINE
  5
84
330
1F
100
AcDbEntity
  8
HIDDEN
100
AcDbLine
 10
193.6
 20
-73.46337590936044
 30
0.0
 11
189.6
 21
-73.46337590936044
 31
0.0
1001
DBPROPERTIES
1002
{
1000
PbHidd
1002
}
  0
LINE
  5
85
330
1F
100
AcDbEntity
  8
THICK
100
AcDbLine
 10
235.1600036621094
 20
-73.5
 30
0.0
 11
193.6000061035156
 21
-73.5
 31
0.0
1001
DBPROPERTIES
1002
{
1000
PbThick
1002
}
  0
LINE
  5
86
330
1F
100
AcDbEntity
  8
THICK
100
AcDbLine
 10
235.16
 20
-73.5
 30
0.0
 11
235.16
 21
0.0000000000000045
 31
0.0
1001
DBPROPERTIES
1002
{
1000
PbThick
1002
}
  0
LINE
  5
87
330
1F
100
AcDbEntity
  8
THICK
100
AcDbLine
 10
-183.1281433105469
 20
-73.5
 30
0.0
 11
-183.9199981689453
 21
-73.5
 31
0.0
1001
DBPROPERTIES
1002
{
1000
PbThick
1002
}
  0
LINE
  5
88
330
1F
100
AcDbEntity
  8
THICK
100
AcDbLine
 10
-183.1281485652655
 20
73.5
 30
0.0
 11
-183.1281485652655
 21
-0.0000000000000034
 31
0.0
1001
DBPROPERTIES
1002
{
1000
PbThick
1002
}
  0
LINE
  5
89
330
1F
100
AcDbEntity
  8
THICK
100
AcDbLine
 10
-235.1600036621094
 20
73.5
 30
0.0
 11
-183.1281433105469
 21
73.5
 31
0.0
1001
DBPROPERTIES
1002
{
1000
PbThick
1002
}
  0
LINE
  5
8A
330
1F
100
AcDbEntity
  8
THICK
100
AcDbLine
 10
-235.16
 20
73.5
 30
0.0
 11
-235.16
 21
-0.0000000000000047
 31
0.0
1001
DBPROPERTIES
1002
{
1000
PbThick
1002
}
  0
LINE
  5
8B
330
1F
100
AcDbEntity
  8
THICK
100
AcDbLine
 10
-235.16
 20
-73.5
 30
0.0
 11
-235.16
 21
-0.0000000000000047
 31
0.0
1001
DBPROPERTIES
1002
{
1000
PbThick
1002
}
  0
LINE
  5
8C
330
1F
100
AcDbEntity
  8
THICK
100
AcDbLine
 10
-193.6000061035156
 20
-73.5
 30
0.0
 11
-235.1600036621094
 21
-73.5
 31
0.0
1001
DBPROPERTIES
1002
{
1000
PbThick
1002
}
  0
LINE
  5
8D
330
1F
100
AcDbEntity
  8
HIDDEN
100
AcDbLine
 10
-189.6
 20
-73.46337590936044
 30
0.0
 11
-193.6
 21
-73.46337590936044
 31
0.0
1001
DBPROPERTIES
1002
{
1000
PbHidd
1002
}
  0
LINE
  5
8E
330
1F
100
AcDbEntity
  8
HIDDEN
100
AcDbLine
 10
-193.6
 20
-68.9273501594251
 30
0.0
 11
-189.6
 21
-68.9273501594251
 31
0.0
1001
DBPROPERTIES
1002
{
1000
PbHidd
1002
}
  0
LINE
  5
8F
330
1F
100
AcDbEntity
  8
HIDDEN
100
AcDbLine
 10
-189.6
 20
-67.02704230383435
 30
0.0
 11
-193.6
 21
-67.02704230383435
 31
0.0
1001
DBPROPERTIES
1002
{
1000
PbHidd
1002
}
  0
LINE
  5
90
330
1F
100
AcDbEntity
  8
HIDDEN
100
AcDbLine
 10
-193.6
 20
-50.54661610830145
 30
0.0
 11
-189.6
 21
-50.54661610830145
 31
0.0
1001
DBPROPERTIES
1002
{
1000
PbHidd
1002
}
  0
LINE
  5
91
330
1F
100
AcDbEntity
  8
THICK
100
AcDbLine
 10
-189.6
 20
-45.14698218042929
 30
0.0
 11
-193.6
 21
-45.14698218042929
 31
0.0
1001
DBPROPERTIES
1002
{
1000
PbThick
1002
}
  0
LINE
  5
92
330
1F
100
AcDbEntity
  8
HIDDEN
100
AcDbLine
 10
165.9052125524184
 20
0.0000000000000044
 30
0.0
 11
165.9052125524184
 21
71.5
 31
0.0
1001
DBPROPERTIES
1002
{
1000
PbHidd
1002
}
  0
LINE
  5
93
330
1F
100
AcDbEntity
  8
HIDDEN
100
AcDbLine
 10
242.0
 20
71.5
 30
0.0
 11
165.9052124023438
 21
71.5
 31
0.0
1001
DBPROPERTIES
1002
{
1000
PbHidd
1002
}
  0
LINE
  5
94
330
1F
100
AcDbEntity
  8
HIDDEN
100
AcDbLine
 10
165.9052124023438
 20
-71.5
 30
0.0
 11
242.0
 21
-71.5
 31
0.0
1001
DBPROPERTIES
1002
{
1000
PbHidd
1002
}
  0
LINE
  5
95
330
1F
100
AcDbEntity
  8
HIDDEN
100
AcDbLine
 10
165.9052125524184
 20
-71.5
 30
0.0
 11
165.9052125524184
 21
0.0000000000000044
 31
0.0
1001
DBPROPERTIES
1002
{
1000
PbHidd
1002
}
  0
LINE
  5
96
330
1F
100
AcDbEntity
  8
HIDDEN
100
AcDbLine
 10
-165.9052125524184
 20
-71.49999999999999
 30
0.0
 11
-165.9052125524184
 21
-0.0000000000000158
 31
0.0
1001
DBPROPERTIES
1002
{
1000
PbHidd
1002
}
  0
LINE
  5
97
330
1F
100
AcDbEntity
  8
HIDDEN
100
AcDbLine
 10
-242.0
 20
-71.5
 30
0.0
 11
-165.9052124023438
 21
-71.5
 31
0.0
1001
DBPROPERTIES
1002
{
1000
PbHidd
1002
}
  0
LINE
  5
98
330
1F
100
AcDbEntity
  8
HIDDEN
100
AcDbLine
 10
-165.9052124023438
 20
71.5
 30
0.0
 11
-242.0
 21
71.5
 31
0.0
1001
DBPROPERTIES
1002
{
1000
PbHidd
1002
}
  0
LINE
  5
99
330
1F
100
AcDbEntity
  8
HIDDEN
100
AcDbLine
 10
-165.9052125524184
 20
71.50000000000001
 30
0.0
 11
-165.9052125524184
 21
-0.0000000000000158
 31
0.0
1001
DBPROPERTIES
1002
{
1000
PbHidd
1002
}
  0
LINE
  5
9A
330
1F
100
AcDbEntity
  8
THICK
100
AcDbLine
 10
242.0
 20
-73.5
 30
0.0
 11
242.0
 21
73.5
 31
0.0
1001
DBPROPERTIES
1002
{
1000
PbThick
1002
}
  0
LINE
  5
9B
330
1F
100
AcDbEntity
  8
THICK
100
AcDbLine
 10
239.1600036621094
 20
73.5
 30
0.0
 11
242.0
 21
73.5
 31
0.0
1001
DBPROPERTIES
1002
{
1000
PbThick
1002
}
  0
LINE
  5
9C
330
1F
100
AcDbEntity
  8
THICK
100
AcDbLine
 10
239.16
 20
73.5
 30
0.0
 11
239.16
 21
0.0000000000000045
 31
0.0
1001
DBPROPERTIES
1002
{
1000
PbThick
1002
}
  0
LINE
  5
9D
330
1F
100
AcDbEntity
  8
THICK
100
AcDbLine
 10
239.16
 20
0.0000000000000045
 30
0.0
 11
239.16
 21
-73.5
 31
0.0
1001
DBPROPERTIES
1002
{
1000
PbThick
1002
}
  0
LINE
  5
9E
330
1F
100
AcDbEntity
  8
THICK
100
AcDbLine
 10
242.0
 20
-73.5
 30
0.0
 11
239.1600036621094
 21
-73.5
 31
0.0
1001
DBPROPERTIES
1002
{
1000
PbThick
1002
}
  0
LINE
  5
9F
330
1F
100
AcDbEntity
  8
HIDDEN
100
AcDbLine
 10
235.16
 20
0.0000000000000045
 30
0.0
 11
235.16
 21
-73.5
 31
0.0
1001
DBPROPERTIES
1002
{
1000
PbHidd
1002
}
  0
LINE
  5
A0
330
1F
100
AcDbEntity
  8
HIDDEN
100
AcDbLine
 10
239.16
 20
-73.5
 30
0.0
 11
239.16
 21
0.0000000000000045
 31
0.0
1001
DBPROPERTIES
1002
{
1000
PbHidd
1002
}
  0
LINE
  5
A1
330
1F
100
AcDbEntity
  8
THICK
100
AcDbLine
 10
-242.0
 20
73.5
 30
0.0
 11
-242.0
 21
-73.5
 31
0.0
1001
DBPROPERTIES
1002
{
1000
PbThick
1002
}
  0
LINE
  5
A2
330
1F
100
AcDbEntity
  8
THICK
100
AcDbLine
 10
-239.1600036621094
 20
-73.5
 30
0.0
 11
-242.0
 21
-73.5
 31
0.0
1001
DBPROPERTIES
1002
{
1000
PbThick
1002
}
  0
LINE
  5
A3
330
1F
100
AcDbEntity
  8
THICK
100
AcDbLine
 10
-239.16
 20
-0.0000000000000043
 30
0.0
 11
-239.16
 21
-73.5
 31
0.0
1001
DBPROPERTIES
1002
{
1000
PbThick
1002
}
  0
LINE
  5
A4
330
1F
100
AcDbEntity
  8
THICK
100
AcDbLine
 10
-239.16
 20
-0.0000000000000043
 30
0.0
 11
-239.16
 21
73.5
 31
0.0
1001
DBPROPERTIES
1002
{
1000
PbThick
1002
}
  0
LINE
  5
A5
330
1F
100
AcDbEntity
  8
THICK
100
AcDbLine
 10
-242.0
 20
73.5
 30
0.0
 11
-239.1600036621094
 21
73.5
 31
0.0
1001
DBPROPERTIES
1002
{
1000
PbThick
1002
}
  0
LINE
  5
A6
330
1F
100
AcDbEntity
  8
HIDDEN
100
AcDbLine
 10
-239.16
 20
-0.0000000000000043
 30
0.0
 11
-239.16
 21
-73.5
 31
0.0
1001
DBPROPERTIES
1002
{
1000
PbHidd
1002
}
  0
LINE
  5
A7
330
1F
100
AcDbEntity
  8
HIDDEN
100
AcDbLine
 10
-235.16
 20
-73.5
 30
0.0
 11
-235.16
 21
-0.0000000000000047
 31
0.0
1001
DBPROPERTIES
1002
{
1000
PbHidd
1002
}
  0
ARC
  5
A8
330
1F
100
AcDbEntity
  8
THICK
100
AcDbCircle
 10
0.0000000000000086
 20
0.0
 30
0.0
 40
39.3421736092118
100
AcDbArc
 50
270.0000187239684
 51
89.99998127603165
1001
DBPROPERTIES
1002
{
1000
PbThick
1002
}
  0
ARC
  5
A9
330
1F
100
AcDbEntity
  8
THICK
100
AcDbCircle
 10
0.0000000000000074
 20
0.0
 30
0.0
 40
58.08
100
AcDbArc
 50
270.0000187239684
 51
0.0
1001
DBPROPERTIES
1002
{
1000
PbThick
1002
}
  0
ARC
  5
AA
330
1F
100
AcDbEntity
  8
THICK
100
AcDbCircle
 10
0.0000000000000074
 20
0.0
 30
0.0
 40
58.08
100
AcDbArc
 50
0.0
 51
89.99998127603165
1001
DBPROPERTIES
1002
{
1000
PbThick
1002
}
  0
ELLIPSE
  5
AB
330
1F
100
AcDbEntity
  8
THICK
100
AcDbEllipse
 10
-42.16384615384617
 20
0.0000000000000026
 30
0.0
 11
-9.650689676893920E-16
 21
-15.76129283793297
 31
0.0
210
0.0
220
0.0
230
1.0
 40
0.8320502943378434
 41
-3.141592653589793
 42
-2.509467827383479
1001
DBPROPERTIES
1002
{
1000
PbThick
1002
}
  0
ARC
  5
AC
330
1F
100
AcDbEntity
  8
THICK
100
AcDbCircle
 10
-38.71999999999999
 20
0.0000000000000024
 30
0.0
 40
16.94
100
AcDbArc
 50
131.3543560551891
 51
228.6456439448109
1001
DBPROPERTIES
1002
{
1000
PbThick
1002
}
  0
ELLIPSE
  5
AD
330
1F
100
AcDbEntity
  8
THICK
100
AcDbEllipse
 10
-42.16384615384617
 20
0.0000000000000026
 30
0.0
 11
-9.650689676893920E-16
 21
-15.76129283793297
 31
0.0
210
0.0
220
0.0
230
1.0
 40
0.8320502943378434
 41
-0.6321248262063129
 42
3.141592653589793
1001
DBPROPERTIES
1002
{
1000
PbThick
1002
}
  0
ARC
  5
AE
330
1F
100
AcDbEntity
  8
THICK
100
AcDbCircle
 10
0.0000000000000074
 20
0.0
 30
0.0
 40
58.08
100
AcDbArc
 50
180.0000198478428
 51
270.0000187239684
1001
DBPROPERTIES
1002
{
1000
PbThick
1002
}
  0
LINE
  5
AF
330
1F
100
AcDbEntity
  8
HIDDEN
100
AcDbLine
 10
165.9052125524184
 20
0.0000000000000044
 30
0.0
 11
165.9052125524184
 21
-71.5
 31
0.0
1001
DBPROPERTIES
1002
{
1000
PbHidd
1002
}
  0
LINE
  5
B0
330
1F
100
AcDbEntity
  8
HIDDEN
100
AcDbLine
 10
-165.9052125524184
 20
-71.49999999999999
 30
0.0
 11
-165.9052125524184
 21
-0.0000000000000158
 31
0.0
1001
DBPROPERTIES
1002
{
1000
PbHidd
1002
}
  0
LINE
  5
B1
330
1F
100
AcDbEntity
  8
HIDDEN
100
AcDbLine
 10
-165.9052125524184
 20
-0.0000000000000158
 30
0.0
 11
-165.9052125524184
 21
71.50000000000001
 31
0.0
1001
DBPROPERTIES
1002
{
1000
PbHidd
1002
}
  0
LINE
  5
B2
330
1F
100
AcDbEntity
  8
HIDDEN
100
AcDbLine
 10
165.9052125524184
 20
71.5
 30
0.0
 11
165.9052125524184
 21
0.0000000000000044
 31
0.0
1001
DBPROPERTIES
1002
{
1000
PbHidd
1002
}
  0
ARC
  5
B3
330
1F
100
AcDbEntity
  8
THICK
100
AcDbCircle
 10
0.0000000000000074
 20
0.0
 30
0.0
 40
58.08
100
AcDbArc
 50
89.99998127603165
 51
180.0000198478428
1001
DBPROPERTIES
1002
{
1000
PbThick
1002
}
  0
ELLIPSE
  5
B4
330
1F
100
AcDbEntity
  8
HIDDEN
100
AcDbEllipse
 10
-42.16384615384617
 20
0.0000000000000026
 30
0.0
 11
-9.650689676893920E-16
 21
-15.76129283793297
 31
0.0
210
0.0
220
0.0
230
1.0
 40
0.8320502943378434
 41
-2.509467827383479
 42
-0.6321248262063128
1001
DBPROPERTIES
1002
{
1000
PbHidd
1002
}
  0
ARC
  5
B5
330
1F
100
AcDbEntity
  8
THICK
100
AcDbCircle
 10
-48.40000000000003
 20
0.000000000000003
 30
0.0
 40
19.36
100
AcDbArc
 50
308.6149676930463
 51
51.38503230695372
1001
DBPROPERTIES
1002
{
1000
PbThick
1002
}
  0
LINE
  5
B6
330
1F
100
AcDbEntity
  8
THICK
100
AcDbLine
 10
-36.31775665283203
 20
-15.12705612182617
 30
0.0
 11
-36.81134414672852
 21
-15.50843906402588
 31
0.0
1001
DBPROPERTIES
1002
{
1000
PbThick
1002
}
  0
LINE
  5
B7
330
1F
100
AcDbEntity
  8
THICK
100
AcDbLine
 10
-36.81134414672852
 20
-15.50843906402588
 30
0.0
 11
-37.32707977294922
 21
-15.88058090209961
 31
0.0
1001
DBPROPERTIES
1002
{
1000
PbThick
1002
}
  0
LINE
  5
B8
330
1F
100
AcDbEntity
  8
THICK
100
AcDbLine
 10
-37.32707977294922
 20
-15.88058090209961
 30
0.0
 11
-37.85760116577148
 21
-16.23714637756348
 31
0.0
1001
DBPROPERTIES
1002
{
1000
PbThick
1002
}
  0
LINE
  5
B9
330
1F
100
AcDbEntity
  8
THICK
100
AcDbLine
 10
-37.85760116577148
 20
-16.23714637756348
 30
0.0
 11
-38.39521789550781
 21
-16.57274055480957
 31
0.0
1001
DBPROPERTIES
1002
{
1000
PbThick
1002
}
  0
LINE
  5
BA
330
1F
100
AcDbEntity
  8
THICK
100
AcDbLine
 10
-38.39521789550781
 20
-16.57274055480957
 30
0.0
 11
-38.93159103393555
 21
-16.88300132751465
 31
0.0
1001
DBPROPERTIES
1002
{
1000
PbThick
1002
}
  0
LINE
  5
BB
330
1F
100
AcDbEntity
  8
THICK
100
AcDbLine
 10
-38.93159103393555
 20
-16.88300132751465
 30
0.0
 11
-39.45795822143555
 21
-17.16457939147949
 31
0.0
1001
DBPROPERTIES
1002
{
1000
PbThick
1002
}
  0
LINE
  5
BC
330
1F
100
AcDbEntity
  8
THICK
100
AcDbLine
 10
-39.45795822143555
 20
-17.16457939147949
 30
0.0
 11
-39.97804641723633
 21
-17.42119407653809
 31
0.0
1001
DBPROPERTIES
1002
{
1000
PbThick
1002
}
  0
LINE
  5
BD
330
1F
100
AcDbEntity
  8
THICK
100
AcDbLine
 10
-39.97804641723633
 20
-17.42119407653809
 30
0.0
 11
-40.52139282226562
 21
-17.66701698303223
 31
0.0
1001
DBPROPERTIES
1002
{
1000
PbThick
1002
}
  0
LINE
  5
BE
330
1F
100
AcDbEntity
  8
THICK
100
AcDbLine
 10
-40.52139282226562
 20
-17.66701698303223
 30
0.0
 11
-41.08202743530273
 21
-17.89716529846191
 31
0.0
1001
DBPROPERTIES
1002
{
1000
PbThick
1002
}
  0
LINE
  5
BF
330
1F
100
AcDbEntity
  8
THICK
100
AcDbLine
 10
-41.08202743530273
 20
-17.89716529846191
 30
0.0
 11
-41.65122222900391
 21
-18.10687828063965
 31
0.0
1001
DBPROPERTIES
1002
{
1000
PbThick
1002
}
  0
LINE
  5
C0
330
1F
100
AcDbEntity
  8
THICK
100
AcDbLine
 10
-41.65122222900391
 20
-18.10687828063965
 30
0.0
 11
-42.22031021118164
 21
-18.2924747467041
 31
0.0
1001
DBPROPERTIES
1002
{
1000
PbThick
1002
}
  0
LINE
  5
C1
330
1F
100
AcDbEntity
  8
THICK
100
AcDbLine
 10
-42.22031021118164
 20
-18.2924747467041
 30
0.0
 11
-42.78053665161133
 21
-18.45180130004883
 31
0.0
1001
DBPROPERTIES
1002
{
1000
PbThick
1002
}
  0
LINE
  5
C2
330
1F
100
AcDbEntity
  8
THICK
100
AcDbLine
 10
-42.78053665161133
 20
-18.45180130004883
 30
0.0
 11
-43.32311630249023
 21
-18.58381652832031
 31
0.0
1001
DBPROPERTIES
1002
{
1000
PbThick
1002
}
  0
LINE
  5
C3
330
1F
100
AcDbEntity
  8
THICK
100
AcDbLine
 10
-43.32311630249023
 20
-18.58381652832031
 30
0.0
 11
-43.84718322753906
 21
-18.69031143188477
 31
0.0
1001
DBPROPERTIES
1002
{
1000
PbThick
1002
}
  0
LINE
  5
C4
330
1F
100
AcDbEntity
  8
THICK
100
AcDbLine
 10
-43.84718322753906
 20
-18.69031143188477
 30
0.0
 11
-44.38410186767578
 21
-18.77767944335938
 31
0.0
1001
DBPROPERTIES
1002
{
1000
PbThick
1002
}
  0
LINE
  5
C5
330
1F
100
AcDbEntity
  8
THICK
100
AcDbLine
 10
-44.38410186767578
 20
-18.77767944335938
 30
0.0
 11
-44.93125152587891
 21
-18.84356117248535
 31
0.0
1001
DBPROPERTIES
1002
{
1000
PbThick
1002
}
  0
LINE
  5
C6
330
1F
100
AcDbEntity
  8
THICK
100
AcDbLine
 10
-44.93125152587891
 20
-18.84356117248535
 30
0.0
 11
-45.48075485229492
 21
-18.88565254211426
 31
0.0
1001
DBPROPERTIES
1002
{
1000
PbThick
1002
}
  0
LINE
  5
C7
330
1F
100
AcDbEntity
  8
THICK
100
AcDbLine
 10
-45.48075485229492
 20
-18.88565254211426
 30
0.0
 11
-46.02504730224609
 21
-18.90269660949707
 31
0.0
1001
DBPROPERTIES
1002
{
1000
PbThick
1002
}
  0
LINE
  5
C8
330
1F
100
AcDbEntity
  8
THICK
100
AcDbLine
 10
-46.02504730224609
 20
-18.90269660949707
 30
0.0
 11
-46.55705261230469
 21
-18.89487838745117
 31
0.0
1001
DBPROPERTIES
1002
{
1000
PbThick
1002
}
  0
LINE
  5
C9
330
1F
100
AcDbEntity
  8
THICK
100
AcDbLine
 10
-46.55705261230469
 20
-18.89487838745117
 30
0.0
 11
-47.06987762451172
 21
-18.86334228515625
 31
0.0
1001
DBPROPERTIES
1002
{
1000
PbThick
1002
}
  0
LINE
  5
CA
330
1F
100
AcDbEntity
  8
THICK
100
AcDbLine
 10
-47.06987762451172
 20
-18.86334228515625
 30
0.0
 11
-47.55710983276367
 21
-18.81069183349609
 31
0.0
1001
DBPROPERTIES
1002
{
1000
PbThick
1002
}
  0
LINE
  5
CB
330
1F
100
AcDbEntity
  8
THICK
100
AcDbLine
 10
-47.55710983276367
 20
-18.81069183349609
 30
0.0
 11
-48.03236770629883
 21
-18.73682975769043
 31
0.0
1001
DBPROPERTIES
1002
{
1000
PbThick
1002
}
  0
LINE
  5
CC
330
1F
100
AcDbEntity
  8
THICK
100
AcDbLine
 10
-48.03236770629883
 20
-18.73682975769043
 30
0.0
 11
-48.51353073120117
 21
-18.63839149475098
 31
0.0
1001
DBPROPERTIES
1002
{
1000
PbThick
1002
}
  0
LINE
  5
CD
330
1F
100
AcDbEntity
  8
THICK
100
AcDbLine
 10
-48.51353073120117
 20
-18.63839149475098
 30
0.0
 11
-48.99460220336914
 21
-18.51459503173828
 31
0.0
1001
DBPROPERTIES
1002
{
1000
PbThick
1002
}
  0
LINE
  5
CE
330
1F
100
AcDbEntity
  8
THICK
100
AcDbLine
 10
-48.99460220336914
 20
-18.51459503173828
 30
0.0
 11
-49.47013092041016
 21
-18.36585807800293
 31
0.0
1001
DBPROPERTIES
1002
{
1000
PbThick
1002
}
  0
LINE
  5
CF
330
1F
100
AcDbEntity
  8
THICK
100
AcDbLine
 10
-49.47013092041016
 20
-18.36585807800293
 30
0.0
 11
-49.93503952026367
 21
-18.19322395324707
 31
0.0
1001
DBPROPERTIES
1002
{
1000
PbThick
1002
}
  0
LINE
  5
D0
330
1F
100
AcDbEntity
  8
THICK
100
AcDbLine
 10
-49.93503952026367
 20
-18.19322395324707
 30
0.0
 11
-50.3848876953125
 21
-17.99875259399414
 31
0.0
1001
DBPROPERTIES
1002
{
1000
PbThick
1002
}
  0
LINE
  5
D1
330
1F
100
AcDbEntity
  8
THICK
100
AcDbLine
 10
-50.3848876953125
 20
-17.99875259399414
 30
0.0
 11
-50.81555557250977
 21
-17.78530883789062
 31
0.0
1001
DBPROPERTIES
1002
{
1000
PbThick
1002
}
  0
LINE
  5
D2
330
1F
100
AcDbEntity
  8
THICK
100
AcDbLine
 10
-50.81555557250977
 20
-17.78530883789062
 30
0.0
 11
-51.22338485717773
 21
-17.55660247802734
 31
0.0
1001
DBPROPERTIES
1002
{
1000
PbThick
1002
}
  0
LINE
  5
D3
330
1F
100
AcDbEntity
  8
THICK
100
AcDbLine
 10
-51.22338485717773
 20
-17.55660247802734
 30
0.0
 11
-51.60668182373047
 21
-17.31619262695312
 31
0.0
1001
DBPROPERTIES
1002
{
1000
PbThick
1002
}
  0
LINE
  5
D4
330
1F
100
AcDbEntity
  8
THICK
100
AcDbLine
 10
-51.60668182373047
 20
-17.31619262695312
 30
0.0
 11
-51.98328399658203
 21
-17.05376625061035
 31
0.0
1001
DBPROPERTIES
1002
{
1000
PbThick
1002
}
  0
LINE
  5
D5
330
1F
100
AcDbEntity
  8
THICK
100
AcDbLine
 10
-51.98328399658203
 20
-17.05376625061035
 30
0.0
 11
-52.35657119750977
 21
-16.7659969329834
 31
0.0
1001
DBPROPERTIES
1002
{
1000
PbThick
1002
}
  0
LINE
  5
D6
330
1F
100
AcDbEntity
  8
THICK
100
AcDbLine
 10
-52.35657119750977
 20
-16.7659969329834
 30
0.0
 11
-52.72322082519531
 21
-16.4537296295166
 31
0.0
1001
DBPROPERTIES
1002
{
1000
PbThick
1002
}
  0
LINE
  5
D7
330
1F
100
AcDbEntity
  8
THICK
100
AcDbLine
 10
-52.72322082519531
 20
-16.4537296295166
 30
0.0
 11
-53.08046722412109
 21
-16.11849594116211
 31
0.0
1001
DBPROPERTIES
1002
{
1000
PbThick
1002
}
  0
LINE
  5
D8
330
1F
100
AcDbEntity
  8
THICK
100
AcDbLine
 10
-53.08046722412109
 20
-16.11849594116211
 30
0.0
 11
-53.42591094970703
 21
-15.76233386993408
 31
0.0
1001
DBPROPERTIES
1002
{
1000
PbThick
1002
}
  0
LINE
  5
D9
330
1F
100
AcDbEntity
  8
THICK
100
AcDbLine
 10
-53.42591094970703
 20
-15.76233386993408
 30
0.0
 11
-53.75734329223633
 21
-15.3874044418335
 31
0.0
1001
DBPROPERTIES
1002
{
1000
PbThick
1002
}
  0
LINE
  5
DA
330
1F
100
AcDbEntity
  8
THICK
100
AcDbLine
 10
-53.75734329223633
 20
-15.3874044418335
 30
0.0
 11
-54.07318496704102
 21
-14.99663066864014
 31
0.0
1001
DBPROPERTIES
1002
{
1000
PbThick
1002
}
  0
LINE
  5
DB
330
1F
100
AcDbEntity
  8
THICK
100
AcDbLine
 10
-54.07318496704102
 20
-14.99663066864014
 30
0.0
 11
-54.37194442749023
 21
-14.59323596954346
 31
0.0
1001
DBPROPERTIES
1002
{
1000
PbThick
1002
}
  0
LINE
  5
DC
330
1F
100
AcDbEntity
  8
THICK
100
AcDbLine
 10
-54.37194442749023
 20
-14.59323596954346
 30
0.0
 11
-54.65241241455078
 21
-14.18078327178955
 31
0.0
1001
DBPROPERTIES
1002
{
1000
PbThick
1002
}
  0
LINE
  5
DD
330
1F
100
AcDbEntity
  8
THICK
100
AcDbLine
 10
-54.65241241455078
 20
-14.18078327178955
 30
0.0
 11
-54.91383361816406
 21
-13.76348495483398
 31
0.0
1001
DBPROPERTIES
1002
{
1000
PbThick
1002
}
  0
LINE
  5
DE
330
1F
100
AcDbEntity
  8
THICK
100
AcDbLine
 10
-54.91383361816406
 20
-13.76348495483398
 30
0.0
 11
-55.15861129760742
 21
-13.34008407592773
 31
0.0
1001
DBPROPERTIES
1002
{
1000
PbThick
1002
}
  0
LINE
  5
DF
330
1F
100
AcDbEntity
  8
THICK
100
AcDbLine
 10
-55.15861129760742
 20
-13.34008407592773
 30
0.0
 11
-55.39982986450195
 21
-12.88792419433594
 31
0.0
1001
DBPROPERTIES
1002
{
1000
PbThick
1002
}
  0
LINE
  5
E0
330
1F
100
AcDbEntity
  8
THICK
100
AcDbLine
 10
-55.39982986450195
 20
-12.88792419433594
 30
0.0
 11
-55.63508987426758
 21
-12.4086856842041
 31
0.0
1001
DBPROPERTIES
1002
{
1000
PbThick
1002
}
  0
LINE
  5
E1
330
1F
100
AcDbEntity
  8
THICK
100
AcDbLine
 10
-55.63508987426758
 20
-12.4086856842041
 30
0.0
 11
-55.86062622070312
 21
-11.90859794616699
 31
0.0
1001
DBPROPERTIES
1002
{
1000
PbThick
1002
}
  0
LINE
  5
E2
330
1F
100
AcDbEntity
  8
THICK
100
AcDbLine
 10
-55.86062622070312
 20
-11.90859794616699
 30
0.0
 11
-56.07328796386719
 21
-11.39446926116943
 31
0.0
1001
DBPROPERTIES
1002
{
1000
PbThick
1002
}
  0
LINE
  5
E3
330
1F
100
AcDbEntity
  8
THICK
100
AcDbLine
 10
-56.07328796386719
 20
-11.39446926116943
 30
0.0
 11
-56.27078247070312
 21
-10.87395095825195
 31
0.0
1001
DBPROPERTIES
1002
{
1000
PbThick
1002
}
  0
LINE
  5
E4
330
1F
100
AcDbEntity
  8
THICK
100
AcDbLine
 10
-56.27078247070312
 20
-10.87395095825195
 30
0.0
 11
-56.45128631591797
 21
-10.35528087615967
 31
0.0
1001
DBPROPERTIES
1002
{
1000
PbThick
1002
}
  0
LINE
  5
E5
330
1F
100
AcDbEntity
  8
THICK
100
AcDbLine
 10
-56.45128631591797
 20
-10.35528087615967
 30
0.0
 11
-56.6143913269043
 21
-9.845077514648438
 31
0.0
1001
DBPROPERTIES
1002
{
1000
PbThick
1002
}
  0
LINE
  5
E6
330
1F
100
AcDbEntity
  8
THICK
100
AcDbLine
 10
-56.6143913269043
 20
-9.845077514648438
 30
0.0
 11
-56.77174377441406
 21
-9.30789566040039
 31
0.0
1001
DBPROPERTIES
1002
{
1000
PbThick
1002
}
  0
LINE
  5
E7
330
1F
100
AcDbEntity
  8
THICK
100
AcDbLine
 10
-56.77174377441406
 20
-9.30789566040039
 30
0.0
 11
-56.92350006103516
 21
-8.741047859191895
 31
0.0
1001
DBPROPERTIES
1002
{
1000
PbThick
1002
}
  0
LINE
  5
E8
330
1F
100
AcDbEntity
  8
THICK
100
AcDbLine
 10
-56.92350006103516
 20
-8.741047859191895
 30
0.0
 11
-57.0643310546875
 21
-8.160565376281738
 31
0.0
1001
DBPROPERTIES
1002
{
1000
PbThick
1002
}
  0
LINE
  5
E9
330
1F
100
AcDbEntity
  8
THICK
100
AcDbLine
 10
-57.0643310546875
 20
-8.160565376281738
 30
0.0
 11
-57.19096374511719
 21
-7.584155559539795
 31
0.0
1001
DBPROPERTIES
1002
{
1000
PbThick
1002
}
  0
LINE
  5
EA
330
1F
100
AcDbEntity
  8
THICK
100
AcDbLine
 10
-57.19096374511719
 20
-7.584155559539795
 30
0.0
 11
-57.30150604248047
 21
-7.028097152709961
 31
0.0
1001
DBPROPERTIES
1002
{
1000
PbThick
1002
}
  0
LINE
  5
EB
330
1F
100
AcDbEntity
  8
THICK
100
AcDbLine
 10
-57.30150604248047
 20
-7.028097152709961
 30
0.0
 11
-57.40253829956055
 21
-6.463916301727295
 31
0.0
1001
DBPROPERTIES
1002
{
1000
PbThick
1002
}
  0
LINE
  5
EC
330
1F
100
AcDbEntity
  8
THICK
100
AcDbLine
 10
-57.40253829956055
 20
-6.463916301727295
 30
0.0
 11
-57.49621200561523
 21
-5.879812240600586
 31
0.0
1001
DBPROPERTIES
1002
{
1000
PbThick
1002
}
  0
LINE
  5
ED
330
1F
100
AcDbEntity
  8
THICK
100
AcDbLine
 10
-57.49621200561523
 20
-5.879812240600586
 30
0.0
 11
-57.58155059814453
 21
-5.279017448425293
 31
0.0
1001
DBPROPERTIES
1002
{
1000
PbThick
1002
}
  0
LINE
  5
EE
330
1F
100
AcDbEntity
  8
THICK
100
AcDbLine
 10
-57.58155059814453
 20
-5.279017448425293
 30
0.0
 11
-57.65779876708984
 21
-4.664889812469482
 31
0.0
1001
DBPROPERTIES
1002
{
1000
PbThick
1002
}
  0
LINE
  5
EF
330
1F
100
AcDbEntity
  8
THICK
100
AcDbLine
 10
-57.65779876708984
 20
-4.664889812469482
 30
0.0
 11
-57.72453689575195
 21
-4.040987968444824
 31
0.0
1001
DBPROPERTIES
1002
{
1000
PbThick
1002
}
  0
LINE
  5
F0
330
1F
100
AcDbEntity
  8
THICK
100
AcDbLine
 10
-57.72453689575195
 20
-4.040987968444824
 30
0.0
 11
-57.78138732910156
 21
-3.410879135131836
 31
0.0
1001
DBPROPERTIES
1002
{
1000
PbThick
1002
}
  0
LINE
  5
F1
330
1F
100
AcDbEntity
  8
THICK
100
AcDbLine
 10
-57.78138732910156
 20
-3.410879135131836
 30
0.0
 11
-57.82818603515625
 21
-2.778111934661865
 31
0.0
1001
DBPROPERTIES
1002
{
1000
PbThick
1002
}
  0
LINE
  5
F2
330
1F
100
AcDbEntity
  8
THICK
100
AcDbLine
 10
-57.82818603515625
 20
-2.778111934661865
 30
0.0
 11
-57.86502456665039
 21
-2.146458625793457
 31
0.0
1001
DBPROPERTIES
1002
{
1000
PbThick
1002
}
  0
LINE
  5
F3
330
1F
100
AcDbEntity
  8
THICK
100
AcDbLine
 10
-57.86502456665039
 20
-2.146458625793457
 30
0.0
 11
-57.89201354980469
 21
-1.519734978675842
 31
0.0
1001
DBPROPERTIES
1002
{
1000
PbThick
1002
}
  0
LINE
  5
F4
330
1F
100
AcDbEntity
  8
THICK
100
AcDbLine
 10
-57.89201354980469
 20
-1.519734978675842
 30
0.0
 11
-57.90947341918945
 21
-0.9018081426620483
 31
0.0
1001
DBPROPERTIES
1002
{
1000
PbThick
1002
}
  0
LINE
  5
F5
330
1F
100
AcDbEntity
  8
THICK
100
AcDbLine
 10
-57.90947341918945
 20
-0.9018081426620483
 30
0.0
 11
-57.91793823242188
 21
-0.2966037094593048
 31
0.0
1001
DBPROPERTIES
1002
{
1000
PbThick
1002
}
  0
LINE
  5
F6
330
1F
100
AcDbEntity
  8
THICK
100
AcDbLine
 10
-57.91793823242188
 20
-0.2966037094593048
 30
0.0
 11
-57.91793823242188
 21
0.2966037094593048
 31
0.0
1001
DBPROPERTIES
1002
{
1000
PbThick
1002
}
  0
LINE
  5
F7
330
1F
100
AcDbEntity
  8
THICK
100
AcDbLine
 10
-57.91793823242188
 20
0.2966037094593048
 30
0.0
 11
-57.90947341918945
 21
0.9018081426620483
 31
0.0
1001
DBPROPERTIES
1002
{
1000
PbThick
1002
}
  0
LINE
  5
F8
330
1F
100
AcDbEntity
  8
THICK
100
AcDbLine
 10
-57.90947341918945
 20
0.9018081426620483
 30
0.0
 11
-57.89201354980469
 21
1.519734978675842
 31
0.0
1001
DBPROPERTIES
1002
{
1000
PbThick
1002
}
  0
LINE
  5
F9
330
1F
100
AcDbEntity
  8
THICK
100
AcDbLine
 10
-57.89201354980469
 20
1.519734978675842
 30
0.0
 11
-57.86502456665039
 21
2.146458625793457
 31
0.0
1001
DBPROPERTIES
1002
{
1000
PbThick
1002
}
  0
LINE
  5
FA
330
1F
100
AcDbEntity
  8
THICK
100
AcDbLine
 10
-57.86502456665039
 20
2.146458625793457
 30
0.0
 11
-57.82818603515625
 21
2.778111934661865
 31
0.0
1001
DBPROPERTIES
1002
{
1000
PbThick
1002
}
  0
LINE
  5
FB
330
1F
100
AcDbEntity
  8
THICK
100
AcDbLine
 10
-57.82818603515625
 20
2.778111934661865
 30
0.0
 11
-57.78138732910156
 21
3.410879135131836
 31
0.0
1001
DBPROPERTIES
1002
{
1000
PbThick
1002
}
  0
LINE
  5
FC
330
1F
100
AcDbEntity
  8
THICK
100
AcDbLine
 10
-57.78138732910156
 20
3.410879135131836
 30
0.0
 11
-57.72453689575195
 21
4.040987968444824
 31
0.0
1001
DBPROPERTIES
1002
{
1000
PbThick
1002
}
  0
LINE
  5
FD
330
1F
100
AcDbEntity
  8
THICK
100
AcDbLine
 10
-57.72453689575195
 20
4.040987968444824
 30
0.0
 11
-57.65779876708984
 21
4.664889812469482
 31
0.0
1001
DBPROPERTIES
1002
{
1000
PbThick
1002
}
  0
LINE
  5
FE
330
1F
100
AcDbEntity
  8
THICK
100
AcDbLine
 10
-57.65779876708984
 20
4.664889812469482
 30
0.0
 11
-57.58155059814453
 21
5.279017448425293
 31
0.0
1001
DBPROPERTIES
1002
{
1000
PbThick
1002
}
  0
LINE
  5
FF
330
1F
100
AcDbEntity
  8
THICK
100
AcDbLine
 10
-57.58155059814453
 20
5.279017448425293
 30
0.0
 11
-57.49621200561523
 21
5.879812240600586
 31
0.0
1001
DBPROPERTIES
1002
{
1000
PbThick
1002
}
  0
LINE
  5
100
330
1F
100
AcDbEntity
  8
THICK
100
AcDbLine
 10
-57.49621200561523
 20
5.879812240600586
 30
0.0
 11
-57.40253829956055
 21
6.463916301727295
 31
0.0
1001
DBPROPERTIES
1002
{
1000
PbThick
1002
}
  0
LINE
  5
101
330
1F
100
AcDbEntity
  8
THICK
100
AcDbLine
 10
-57.40253829956055
 20
6.463916301727295
 30
0.0
 11
-57.30150604248047
 21
7.028097152709961
 31
0.0
1001
DBPROPERTIES
1002
{
1000
PbThick
1002
}
  0
LINE
  5
102
330
1F
100
AcDbEntity
  8
THICK
100
AcDbLine
 10
-57.30150604248047
 20
7.028097152709961
 30
0.0
 11
-57.19096374511719
 21
7.584155559539795
 31
0.0
1001
DBPROPERTIES
1002
{
1000
PbThick
1002
}
  0
LINE
  5
103
330
1F
100
AcDbEntity
  8
THICK
100
AcDbLine
 10
-57.19096374511719
 20
7.584155559539795
 30
0.0
 11
-57.0643310546875
 21
8.160565376281738
 31
0.0
1001
DBPROPERTIES
1002
{
1000
PbThick
1002
}
  0
LINE
  5
104
330
1F
100
AcDbEntity
  8
THICK
100
AcDbLine
 10
-57.0643310546875
 20
8.160565376281738
 30
0.0
 11
-56.92350006103516
 21
8.741047859191895
 31
0.0
1001
DBPROPERTIES
1002
{
1000
PbThick
1002
}
  0
LINE
  5
105
330
1F
100
AcDbEntity
  8
THICK
100
AcDbLine
 10
-56.92350006103516
 20
8.741047859191895
 30
0.0
 11
-56.77174377441406
 21
9.30789566040039
 31
0.0
1001
DBPROPERTIES
1002
{
1000
PbThick
1002
}
  0
LINE
  5
106
330
1F
100
AcDbEntity
  8
THICK
100
AcDbLine
 10
-56.77174377441406
 20
9.30789566040039
 30
0.0
 11
-56.6143913269043
 21
9.845077514648438
 31
0.0
1001
DBPROPERTIES
1002
{
1000
PbThick
1002
}
  0
LINE
  5
107
330
1F
100
AcDbEntity
  8
THICK
100
AcDbLine
 10
-56.6143913269043
 20
9.845077514648438
 30
0.0
 11
-56.45128631591797
 21
10.35528087615967
 31
0.0
1001
DBPROPERTIES
1002
{
1000
PbThick
1002
}
  0
LINE
  5
108
330
1F
100
AcDbEntity
  8
THICK
100
AcDbLine
 10
-56.45128631591797
 20
10.35528087615967
 30
0.0
 11
-56.27078247070312
 21
10.87395095825195
 31
0.0
1001
DBPROPERTIES
1002
{
1000
PbThick
1002
}
  0
LINE
  5
109
330
1F
100
AcDbEntity
  8
THICK
100
AcDbLine
 10
-56.27078247070312
 20
10.87395095825195
 30
0.0
 11
-56.07328796386719
 21
11.39446926116943
 31
0.0
1001
DBPROPERTIES
1002
{
1000
PbThick
1002
}
  0
LINE
  5
10A
330
1F
100
AcDbEntity
  8
THICK
100
AcDbLine
 10
-56.07328796386719
 20
11.39446926116943
 30
0.0
 11
-55.86062622070312
 21
11.90859794616699
 31
0.0
1001
DBPROPERTIES
1002
{
1000
PbThick
1002
}
  0
LINE
  5
10B
330
1F
100
AcDbEntity
  8
THICK
100
AcDbLine
 10
-55.86062622070312
 20
11.90859794616699
 30
0.0
 11
-55.63508987426758
 21
12.4086856842041
 31
0.0
1001
DBPROPERTIES
1002
{
1000
PbThick
1002
}
  0
LINE
  5
10C
330
1F
100
AcDbEntity
  8
THICK
100
AcDbLine
 10
-55.63508987426758
 20
12.4086856842041
 30
0.0
 11
-55.39982986450195
 21
12.88792419433594
 31
0.0
1001
DBPROPERTIES
1002
{
1000
PbThick
1002
}
  0
LINE
  5
10D
330
1F
100
AcDbEntity
  8
THICK
100
AcDbLine
 10
-55.39982986450195
 20
12.88792419433594
 30
0.0
 11
-55.15861129760742
 21
13.34008407592773
 31
0.0
1001
DBPROPERTIES
1002
{
1000
PbThick
1002
}
  0
LINE
  5
10E
330
1F
100
AcDbEntity
  8
THICK
100
AcDbLine
 10
-55.15861129760742
 20
13.34008407592773
 30
0.0
 11
-54.91383361816406
 21
13.76348495483398
 31
0.0
1001
DBPROPERTIES
1002
{
1000
PbThick
1002
}
  0
LINE
  5
10F
330
1F
100
AcDbEntity
  8
THICK
100
AcDbLine
 10
-54.91383361816406
 20
13.76348495483398
 30
0.0
 11
-54.65241241455078
 21
14.18078327178955
 31
0.0
1001
DBPROPERTIES
1002
{
1000
PbThick
1002
}
  0
LINE
  5
110
330
1F
100
AcDbEntity
  8
THICK
100
AcDbLine
 10
-54.65241241455078
 20
14.18078327178955
 30
0.0
 11
-54.37194442749023
 21
14.59323596954346
 31
0.0
1001
DBPROPERTIES
1002
{
1000
PbThick
1002
}
  0
LINE
  5
111
330
1F
100
AcDbEntity
  8
THICK
100
AcDbLine
 10
-54.37194442749023
 20
14.59323596954346
 30
0.0
 11
-54.07318496704102
 21
14.99663066864014
 31
0.0
1001
DBPROPERTIES
1002
{
1000
PbThick
1002
}
  0
LINE
  5
112
330
1F
100
AcDbEntity
  8
THICK
100
AcDbLine
 10
-54.07318496704102
 20
14.99663066864014
 30
0.0
 11
-53.75734329223633
 21
15.3874044418335
 31
0.0
1001
DBPROPERTIES
1002
{
1000
PbThick
1002
}
  0
LINE
  5
113
330
1F
100
AcDbEntity
  8
THICK
100
AcDbLine
 10
-53.75734329223633
 20
15.3874044418335
 30
0.0
 11
-53.42591094970703
 21
15.76233386993408
 31
0.0
1001
DBPROPERTIES
1002
{
1000
PbThick
1002
}
  0
LINE
  5
114
330
1F
100
AcDbEntity
  8
THICK
100
AcDbLine
 10
-53.42591094970703
 20
15.76233386993408
 30
0.0
 11
-53.08046722412109
 21
16.11849594116211
 31
0.0
1001
DBPROPERTIES
1002
{
1000
PbThick
1002
}
  0
LINE
  5
115
330
1F
100
AcDbEntity
  8
THICK
100
AcDbLine
 10
-53.08046722412109
 20
16.11849594116211
 30
0.0
 11
-52.72322082519531
 21
16.4537296295166
 31
0.0
1001
DBPROPERTIES
1002
{
1000
PbThick
1002
}
  0
LINE
  5
116
330
1F
100
AcDbEntity
  8
THICK
100
AcDbLine
 10
-52.72322082519531
 20
16.4537296295166
 30
0.0
 11
-52.35657119750977
 21
16.7659969329834
 31
0.0
1001
DBPROPERTIES
1002
{
1000
PbThick
1002
}
  0
LINE
  5
117
330
1F
100
AcDbEntity
  8
THICK
100
AcDbLine
 10
-52.35657119750977
 20
16.7659969329834
 30
0.0
 11
-51.98328399658203
 21
17.05376625061035
 31
0.0
1001
DBPROPERTIES
1002
{
1000
PbThick
1002
}
  0
LINE
  5
118
330
1F
100
AcDbEntity
  8
THICK
100
AcDbLine
 10
-51.98328399658203
 20
17.05376625061035
 30
0.0
 11
-51.60668182373047
 21
17.31619262695312
 31
0.0
1001
DBPROPERTIES
1002
{
1000
PbThick
1002
}
  0
LINE
  5
119
330
1F
100
AcDbEntity
  8
THICK
100
AcDbLine
 10
-51.60668182373047
 20
17.31619262695312
 30
0.0
 11
-51.22338485717773
 21
17.55660247802734
 31
0.0
1001
DBPROPERTIES
1002
{
1000
PbThick
1002
}
  0
LINE
  5
11A
330
1F
100
AcDbEntity
  8
THICK
100
AcDbLine
 10
-51.22338485717773
 20
17.55660247802734
 30
0.0
 11
-50.81555557250977
 21
17.78530883789062
 31
0.0
1001
DBPROPERTIES
1002
{
1000
PbThick
1002
}
  0
LINE
  5
11B
330
1F
100
AcDbEntity
  8
THICK
100
AcDbLine
 10
-50.81555557250977
 20
17.78530883789062
 30
0.0
 11
-50.3848876953125
 21
17.99875259399414
 31
0.0
1001
DBPROPERTIES
1002
{
1000
PbThick
1002
}
  0
LINE
  5
11C
330
1F
100
AcDbEntity
  8
THICK
100
AcDbLine
 10
-50.3848876953125
 20
17.99875259399414
 30
0.0
 11
-49.93503952026367
 21
18.19322395324707
 31
0.0
1001
DBPROPERTIES
1002
{
1000
PbThick
1002
}
  0
LINE
  5
11D
330
1F
100
AcDbEntity
  8
THICK
100
AcDbLine
 10
-49.93503952026367
 20
18.19322395324707
 30
0.0
 11
-49.47013092041016
 21
18.36585807800293
 31
0.0
1001
DBPROPERTIES
1002
{
1000
PbThick
1002
}
  0
LINE
  5
11E
330
1F
100
AcDbEntity
  8
THICK
100
AcDbLine
 10
-49.47013092041016
 20
18.36585807800293
 30
0.0
 11
-48.99460220336914
 21
18.51459503173828
 31
0.0
1001
DBPROPERTIES
1002
{
1000
PbThick
1002
}
  0
LINE
  5
11F
330
1F
100
AcDbEntity
  8
THICK
100
AcDbLine
 10
-48.99460220336914
 20
18.51459503173828
 30
0.0
 11
-48.51353073120117
 21
18.63839149475098
 31
0.0
1001
DBPROPERTIES
1002
{
1000
PbThick
1002
}
  0
LINE
  5
120
330
1F
100
AcDbEntity
  8
THICK
100
AcDbLine
 10
-48.51353073120117
 20
18.63839149475098
 30
0.0
 11
-48.03236770629883
 21
18.73682975769043
 31
0.0
1001
DBPROPERTIES
1002
{
1000
PbThick
1002
}
  0
LINE
  5
121
330
1F
100
AcDbEntity
  8
THICK
100
AcDbLine
 10
-48.03236770629883
 20
18.73682975769043
 30
0.0
 11
-47.55710983276367
 21
18.81069183349609
 31
0.0
1001
DBPROPERTIES
1002
{
1000
PbThick
1002
}
  0
LINE
  5
122
330
1F
100
AcDbEntity
  8
THICK
100
AcDbLine
 10
-47.55710983276367
 20
18.81069183349609
 30
0.0
 11
-47.06987762451172
 21
18.86334228515625
 31
0.0
1001
DBPROPERTIES
1002
{
1000
PbThick
1002
}
  0
LINE
  5
123
330
1F
100
AcDbEntity
  8
THICK
100
AcDbLine
 10
-47.06987762451172
 20
18.86334228515625
 30
0.0
 11
-46.55705261230469
 21
18.89487838745117
 31
0.0
1001
DBPROPERTIES
1002
{
1000
PbThick
1002
}
  0
LINE
  5
124
330
1F
100
AcDbEntity
  8
THICK
100
AcDbLine
 10
-46.55705261230469
 20
18.89487838745117
 30
0.0
 11
-46.02504730224609
 21
18.90269660949707
 31
0.0
1001
DBPROPERTIES
1002
{
1000
PbThick
1002
}
  0
LINE
  5
125
330
1F
100
AcDbEntity
  8
THICK
100
AcDbLine
 10
-46.02504730224609
 20
18.90269660949707
 30
0.0
 11
-45.48075485229492
 21
18.88565254211426
 31
0.0
1001
DBPROPERTIES
1002
{
1000
PbThick
1002
}
  0
LINE
  5
126
330
1F
100
AcDbEntity
  8
THICK
100
AcDbLine
 10
-45.48075485229492
 20
18.88565254211426
 30
0.0
 11
-44.93125152587891
 21
18.84356117248535
 31
0.0
1001
DBPROPERTIES
1002
{
1000
PbThick
1002
}
  0
LINE
  5
127
330
1F
100
AcDbEntity
  8
THICK
100
AcDbLine
 10
-44.93125152587891
 20
18.84356117248535
 30
0.0
 11
-44.38410186767578
 21
18.77767944335938
 31
0.0
1001
DBPROPERTIES
1002
{
1000
PbThick
1002
}
  0
LINE
  5
128
330
1F
100
AcDbEntity
  8
THICK
100
AcDbLine
 10
-44.38410186767578
 20
18.77767944335938
 30
0.0
 11
-43.84718322753906
 21
18.69031143188477
 31
0.0
1001
DBPROPERTIES
1002
{
1000
PbThick
1002
}
  0
LINE
  5
129
330
1F
100
AcDbEntity
  8
THICK
100
AcDbLine
 10
-43.84718322753906
 20
18.69031143188477
 30
0.0
 11
-43.32311630249023
 21
18.58381652832031
 31
0.0
1001
DBPROPERTIES
1002
{
1000
PbThick
1002
}
  0
LINE
  5
12A
330
1F
100
AcDbEntity
  8
THICK
100
AcDbLine
 10
-43.32311630249023
 20
18.58381652832031
 30
0.0
 11
-42.78053665161133
 21
18.45180130004883
 31
0.0
1001
DBPROPERTIES
1002
{
1000
PbThick
1002
}
  0
LINE
  5
12B
330
1F
100
AcDbEntity
  8
THICK
100
AcDbLine
 10
-42.78053665161133
 20
18.45180130004883
 30
0.0
 11
-42.22031021118164
 21
18.2924747467041
 31
0.0
1001
DBPROPERTIES
1002
{
1000
PbThick
1002
}
  0
LINE
  5
12C
330
1F
100
AcDbEntity
  8
THICK
100
AcDbLine
 10
-42.22031021118164
 20
18.2924747467041
 30
0.0
 11
-41.65122222900391
 21
18.10687828063965
 31
0.0
1001
DBPROPERTIES
1002
{
1000
PbThick
1002
}
  0
LINE
  5
12D
330
1F
100
AcDbEntity
  8
THICK
100
AcDbLine
 10
-41.65122222900391
 20
18.10687828063965
 30
0.0
 11
-41.08202743530273
 21
17.89716529846191
 31
0.0
1001
DBPROPERTIES
1002
{
1000
PbThick
1002
}
  0
LINE
  5
12E
330
1F
100
AcDbEntity
  8
THICK
100
AcDbLine
 10
-41.08202743530273
 20
17.89716529846191
 30
0.0
 11
-40.52139282226562
 21
17.66701698303223
 31
0.0
1001
DBPROPERTIES
1002
{
1000
PbThick
1002
}
  0
LINE
  5
12F
330
1F
100
AcDbEntity
  8
THICK
100
AcDbLine
 10
-40.52139282226562
 20
17.66701698303223
 30
0.0
 11
-39.97804641723633
 21
17.42119407653809
 31
0.0
1001
DBPROPERTIES
1002
{
1000
PbThick
1002
}
  0
LINE
  5
130
330
1F
100
AcDbEntity
  8
THICK
100
AcDbLine
 10
-39.97804641723633
 20
17.42119407653809
 30
0.0
 11
-39.45795822143555
 21
17.16457939147949
 31
0.0
1001
DBPROPERTIES
1002
{
1000
PbThick
1002
}
  0
LINE
  5
131
330
1F
100
AcDbEntity
  8
THICK
100
AcDbLine
 10
-39.45795822143555
 20
17.16457939147949
 30
0.0
 11
-38.93159103393555
 21
16.88300132751465
 31
0.0
1001
DBPROPERTIES
1002
{
1000
PbThick
1002
}
  0
LINE
  5
132
330
1F
100
AcDbEntity
  8
THICK
100
AcDbLine
 10
-38.93159103393555
 20
16.88300132751465
 30
0.0
 11
-38.39521789550781
 21
16.57274055480957
 31
0.0
1001
DBPROPERTIES
1002
{
1000
PbThick
1002
}
  0
LINE
  5
133
330
1F
100
AcDbEntity
  8
THICK
100
AcDbLine
 10
-38.39521789550781
 20
16.57274055480957
 30
0.0
 11
-37.85760116577148
 21
16.23714637756348
 31
0.0
1001
DBPROPERTIES
1002
{
1000
PbThick
1002
}
  0
LINE
  5
134
330
1F
100
AcDbEntity
  8
THICK
100
AcDbLine
 10
-37.85760116577148
 20
16.23714637756348
 30
0.0
 11
-37.32707977294922
 21
15.88058090209961
 31
0.0
1001
DBPROPERTIES
1002
{
1000
PbThick
1002
}
  0
LINE
  5
135
330
1F
100
AcDbEntity
  8
THICK
100
AcDbLine
 10
-37.32707977294922
 20
15.88058090209961
 30
0.0
 11
-36.81134414672852
 21
15.50843906402588
 31
0.0
1001
DBPROPERTIES
1002
{
1000
PbThick
1002
}
  0
LINE
  5
136
330
1F
100
AcDbEntity
  8
THICK
100
AcDbLine
 10
-36.81134414672852
 20
15.50843906402588
 30
0.0
 11
-36.3177375793457
 21
15.12707996368408
 31
0.0
1001
DBPROPERTIES
1002
{
1000
PbThick
1002
}
  0
ARC
  5
137
330
1F
100
AcDbEntity
  8
THICK
100
AcDbCircle
 10
0.0000000000000086
 20
0.0
 30
0.0
 40
39.3421736092118
100
AcDbArc
 50
89.99998127603165
 51
157.3872664347532
1001
DBPROPERTIES
1002
{
1000
PbThick
1002
}
  0
ARC
  5
138
330
1F
100
AcDbEntity
  8
THICK
100
AcDbCircle
 10
0.0000000000000086
 20
0.0
 30
0.0
 40
39.3421736092118
100
AcDbArc
 50
202.6127335652468
 51
270.0000187239684
1001
DBPROPERTIES
1002
{
1000
PbThick
1002
}
  0
LINE
  5
139
330
1F
100
AcDbEntity
  8
HIDDEN
100
AcDbLine
 10
-235.16
 20
-0.0000000000000047
 30
0.0
 11
-235.16
 21
73.5
 31
0.0
1001
DBPROPERTIES
1002
{
1000
PbHidd
1002
}
  0
LINE
  5
13A
330
1F
100
AcDbEntity
  8
HIDDEN
100
AcDbLine
 10
-239.16
 20
73.5
 30
0.0
 11
-239.16
 21
-0.0000000000000043
 31
0.0
1001
DBPROPERTIES
1002
{
1000
PbHidd
1002
}
  0
LINE
  5
13B
330
1F
100
AcDbEntity
  8
HIDDEN
100
AcDbLine
 10
239.16
 20
0.0000000000000045
 30
0.0
 11
239.16
 21
73.5
 31
0.0
1001
DBPROPERTIES
1002
{
1000
PbHidd
1002
}
  0
LINE
  5
13C
330
1F
100
AcDbEntity
  8
HIDDEN
100
AcDbLine
 10
235.16
 20
73.5
 30
0.0
 11
235.16
 21
0.0000000000000045
 31
0.0
1001
DBPROPERTIES
1002
{
1000
PbHidd
1002
}
  0
LINE
  5
13D
330
1F
100
AcDbEntity
  8
HIDDEN
100
AcDbLine
 10
-193.6
 20
-45.1469821804293
 30
0.0
 11
-189.6
 21
-45.1469821804293
 31
0.0
1001
DBPROPERTIES
1002
{
1000
PbHidd
1002
}
  0
LINE
  5
13E
330
1F
100
AcDbEntity
  8
HIDDEN
100
AcDbLine
 10
-189.6
 20
-50.54661610830147
 30
0.0
 11
-193.6
 21
-50.54661610830147
 31
0.0
1001
DBPROPERTIES
1002
{
1000
PbHidd
1002
}
  0
LINE
  5
13F
330
1F
100
AcDbEntity
  8
HIDDEN
100
AcDbLine
 10
-193.6
 20
-67.02704230383436
 30
0.0
 11
-189.6
 21
-67.02704230383436
 31
0.0
1001
DBPROPERTIES
1002
{
1000
PbHidd
1002
}
  0
LINE
  5
140
330
1F
100
AcDbEntity
  8
HIDDEN
100
AcDbLine
 10
-189.6
 20
-68.9273501594251
 30
0.0
 11
-193.6
 21
-68.9273501594251
 31
0.0
1001
DBPROPERTIES
1002
{
1000
PbHidd
1002
}
  0
LINE
  5
141
330
1F
100
AcDbEntity
  8
HIDDEN
100
AcDbLine
 10
-193.6
 20
-73.46337590936045
 30
0.0
 11
-189.6
 21
-73.46337590936045
 31
0.0
1001
DBPROPERTIES
1002
{
1000
PbHidd
1002
}
  0
LINE
  5
142
330
1F
100
AcDbEntity
  8
HIDDEN
100
AcDbLine
 10
-183.1281485652655
 20
-0.0000000000000034
 30
0.0
 11
-183.1281485652655
 21
73.5
 31
0.0
1001
DBPROPERTIES
1002
{
1000
PbHidd
1002
}
  0
LINE
  5
143
330
1F
100
AcDbEntity
  8
HIDDEN
100
AcDbLine
 10
-189.6
 20
-123.4
 30
0.0
 11
-189.8802464050125
 21
-123.4
 31
0.0
1001
DBPROPERTIES
1002
{
1000
PbHidd
1002
}
  0
LINE
  5
144
330
1F
100
AcDbEntity
  8
HIDDEN
100
AcDbLine
 10
-193.6
 20
-110.8
 30
0.0
 11
-193.6
 21
-110.8
 31
0.0
1001
DBPROPERTIES
1002
{
1000
PbHidd
1002
}
  0
LINE
  5
145
330
1F
100
AcDbEntity
  8
HIDDEN
100
AcDbLine
 10
-189.6
 20
-123.8230564768798
 30
0.0
 11
-189.6
 21
-123.8230564768798
 31
0.0
1001
DBPROPERTIES
1002
{
1000
PbHidd
1002
}
  0
LINE
  5
146
330
1F
100
AcDbEntity
  8
HIDDEN
100
AcDbLine
 10
-189.6
 20
-123.4
 30
0.0
 11
-189.6
 21
-123.4
 31
0.0
1001
DBPROPERTIES
1002
{
1000
PbHidd
1002
}
  0
LINE
  5
147
330
1F
100
AcDbEntity
  8
HIDDEN
100
AcDbLine
 10
-193.6
 20
-110.8
 30
0.0
 11
-193.6
 21
-110.8
 31
0.0
1001
DBPROPERTIES
1002
{
1000
PbHidd
1002
}
  0
LINE
  5
148
330
1F
100
AcDbEntity
  8
HIDDEN
100
AcDbLine
 10
-189.6
 20
-123.4
 30
0.0
 11
-189.6
 21
-123.4
 31
0.0
1001
DBPROPERTIES
1002
{
1000
PbHidd
1002
}
  0
LINE
  5
149
330
1F
100
AcDbEntity
  8
HIDDEN
100
AcDbLine
 10
-189.6
 20
-123.8230564768798
 30
0.0
 11
-189.6
 21
-123.8230564768798
 31
0.0
1001
DBPROPERTIES
1002
{
1000
PbHidd
1002
}
  0
LINE
  5
14A
330
1F
100
AcDbEntity
  8
HIDDEN
100
AcDbLine
 10
-189.6
 20
0.0000000000000071
 30
0.0
 11
-189.6
 21
0.0000000000000071
 31
0.0
1001
DBPROPERTIES
1002
{
1000
PbHidd
1002
}
  0
LINE
  5
14B
330
1F
100
AcDbEntity
  8
HIDDEN
100
AcDbLine
 10
-183.92
 20
0.0000000000000071
 30
0.0
 11
-183.92
 21
0.0000000000000071
 31
0.0
1001
DBPROPERTIES
1002
{
1000
PbHidd
1002
}
  0
LINE
  5
14C
330
1F
100
AcDbEntity
  8
HIDDEN
100
AcDbLine
 10
-193.6
 20
-110.8
 30
0.0
 11
-193.6
 21
-110.8
 31
0.0
1001
DBPROPERTIES
1002
{
1000
PbHidd
1002
}
  0
LINE
  5
14D
330
1F
100
AcDbEntity
  8
HIDDEN
100
AcDbLine
 10
-189.6
 20
-123.8230564768798
 30
0.0
 11
-189.6
 21
-123.8230564768798
 31
0.0
1001
DBPROPERTIES
1002
{
1000
PbHidd
1002
}
  0
LINE
  5
14E
330
1F
100
AcDbEntity
  8
HIDDEN
100
AcDbLine
 10
-189.6
 20
-123.4
 30
0.0
 11
-189.6
 21
-123.4
 31
0.0
1001
DBPROPERTIES
1002
{
1000
PbHidd
1002
}
  0
LINE
  5
14F
330
1F
100
AcDbEntity
  8
HIDDEN
100
AcDbLine
 10
183.1281485652655
 20
73.5
 30
0.0
 11
183.1281485652655
 21
0.0000000000000045
 31
0.0
1001
DBPROPERTIES
1002
{
1000
PbHidd
1002
}
  0
LINE
  5
150
330
1F
100
AcDbEntity
  8
HIDDEN
100
AcDbLine
 10
189.6
 20
-73.46337590936045
 30
0.0
 11
193.6
 21
-73.46337590936045
 31
0.0
1001
DBPROPERTIES
1002
{
1000
PbHidd
1002
}
  0
LINE
  5
151
330
1F
100
AcDbEntity
  8
HIDDEN
100
AcDbLine
 10
193.6
 20
-68.9273501594251
 30
0.0
 11
189.6
 21
-68.9273501594251
 31
0.0
1001
DBPROPERTIES
1002
{
1000
PbHidd
1002
}
  0
LINE
  5
152
330
1F
100
AcDbEntity
  8
HIDDEN
100
AcDbLine
 10
189.6
 20
-67.02704230383436
 30
0.0
 11
193.6
 21
-67.02704230383436
 31
0.0
1001
DBPROPERTIES
1002
{
1000
PbHidd
1002
}
  0
LINE
  5
153
330
1F
100
AcDbEntity
  8
HIDDEN
100
AcDbLine
 10
193.6
 20
-50.54661610830147
 30
0.0
 11
189.6
 21
-50.54661610830147
 31
0.0
1001
DBPROPERTIES
1002
{
1000
PbHidd
1002
}
  0
LINE
  5
154
330
1F
100
AcDbEntity
  8
HIDDEN
100
AcDbLine
 10
189.6
 20
-45.1469821804293
 30
0.0
 11
193.6
 21
-45.1469821804293
 31
0.0
1001
DBPROPERTIES
1002
{
1000
PbHidd
1002
}
  0
LINE
  5
155
330
1F
100
AcDbEntity
  8
HIDDEN
100
AcDbLine
 10
189.6
 20
-123.4
 30
0.0
 11
189.6
 21
-123.4
 31
0.0
1001
DBPROPERTIES
1002
{
1000
PbHidd
1002
}
  0
LINE
  5
156
330
1F
100
AcDbEntity
  8
HIDDEN
100
AcDbLine
 10
189.6
 20
-123.8230564768798
 30
0.0
 11
189.6
 21
-123.8230564768798
 31
0.0
1001
DBPROPERTIES
1002
{
1000
PbHidd
1002
}
  0
LINE
  5
157
330
1F
100
AcDbEntity
  8
HIDDEN
100
AcDbLine
 10
193.6
 20
-110.8
 30
0.0
 11
193.6
 21
-110.8
 31
0.0
1001
DBPROPERTIES
1002
{
1000
PbHidd
1002
}
  0
LINE
  5
158
330
1F
100
AcDbEntity
  8
HIDDEN
100
AcDbLine
 10
189.8802464050125
 20
-123.4
 30
0.0
 11
189.6
 21
-123.4
 31
0.0
1001
DBPROPERTIES
1002
{
1000
PbHidd
1002
}
  0
LINE
  5
159
330
1F
100
AcDbEntity
  8
HIDDEN
100
AcDbLine
 10
189.6
 20
-123.8230564768798
 30
0.0
 11
189.6
 21
-123.8230564768798
 31
0.0
1001
DBPROPERTIES
1002
{
1000
PbHidd
1002
}
  0
LINE
  5
15A
330
1F
100
AcDbEntity
  8
HIDDEN
100
AcDbLine
 10
189.6
 20
-123.4
 30
0.0
 11
189.6
 21
-123.4
 31
0.0
1001
DBPROPERTIES
1002
{
1000
PbHidd
1002
}
  0
LINE
  5
15B
330
1F
100
AcDbEntity
  8
THICK
100
AcDbLine
 10
193.6
 20
-45.14698218042929
 30
0.0
 11
193.6
 21
-110.8
 31
0.0
1001
DBPROPERTIES
1002
{
1000
PbThick
1002
}
  0
LINE
  5
15C
330
1F
100
AcDbEntity
  8
HIDDEN
100
AcDbLine
 10
193.6
 20
-110.8
 30
0.0
 11
193.6
 21
-110.8
 31
0.0
1001
DBPROPERTIES
1002
{
1000
PbHidd
1002
}
  0
ARC
  5
15D
330
1F
100
AcDbEntity
  8
THICK
100
AcDbCircle
 10
170.4
 20
-110.8
 30
0.0
 40
23.2
100
AcDbArc
 50
325.8516008186439
 51
0.0
1001
DBPROPERTIES
1002
{
1000
PbThick
1002
}
  0
LINE
  5
15E
330
1F
100
AcDbEntity
  8
HIDDEN
100
AcDbLine
 10
189.6
 20
0.0000000000000071
 30
0.0
 11
189.6
 21
0.0000000000000071
 31
0.0
1001
DBPROPERTIES
1002
{
1000
PbHidd
1002
}
  0
LINE
  5
15F
330
1F
100
AcDbEntity
  8
THICK
100
AcDbLine
 10
189.6
 20
-123.8230564768797
 30
0.0
 11
189.6
 21
-0.0000000000000142
 31
0.0
1001
DBPROPERTIES
1002
{
1000
PbThick
1002
}
  0
LINE
  5
160
330
1F
100
AcDbEntity
  8
HIDDEN
100
AcDbLine
 10
189.6
 20
-123.8230564768797
 30
0.0
 11
189.6
 21
-123.8230564768797
 31
0.0
1001
DBPROPERTIES
1002
{
1000
PbHidd
1002
}
  0
LINE
  5
161
330
1F
100
AcDbEntity
  8
HIDDEN
100
AcDbLine
 10
183.92
 20
0.0000000000000071
 30
0.0
 11
183.92
 21
0.0000000000000071
 31
0.0
1001
DBPROPERTIES
1002
{
1000
PbHidd
1002
}
  0
LINE
  5
162
330
1F
100
AcDbEntity
  8
HIDDEN
100
AcDbLine
 10
183.92
 20
0.0000000000000071
 30
0.0
 11
183.92
 21
0.0000000000000071
 31
0.0
1001
DBPROPERTIES
1002
{
1000
PbHidd
1002
}
  0
LINE
  5
163
330
1F
100
AcDbEntity
  8
HIDDEN
100
AcDbLine
 10
183.92
 20
-108.9
 30
0.0
 11
183.92
 21
-108.9
 31
0.0
1001
DBPROPERTIES
1002
{
1000
PbHidd
1002
}
  0
LINE
  5
164
330
1F
100
AcDbEntity
  8
THICK
100
AcDbLine
 10
183.92
 20
-0.0000000000000284
 30
0.0
 11
183.92
 21
-108.9
 31
0.0
1001
DBPROPERTIES
1002
{
1000
PbThick
1002
}
  0
LINE
  5
165
330
1F
100
AcDbEntity
  8
HIDDEN
100
AcDbLine
 10
189.6
 20
0.0000000000000071
 30
0.0
 11
189.6
 21
0.0000000000000071
 31
0.0
1001
DBPROPERTIES
1002
{
1000
PbHidd
1002
}
  0
LINE
  5
166
330
1F
100
AcDbEntity
  8
THICK
100
AcDbLine
 10
189.6
 20
0.0000000000000073
 30
0.0
 11
183.92
 21
0.0000000000000073
 31
0.0
1001
DBPROPERTIES
1002
{
1000
PbThick
1002
}
  0
LINE
  5
167
330
1F
100
AcDbEntity
  8
HIDDEN
100
AcDbLine
 10
-189.6
 20
0.0000000000000071
 30
0.0
 11
-189.6
 21
0.0000000000000071
 31
0.0
1001
DBPROPERTIES
1002
{
1000
PbHidd
1002
}
  0
LINE
  5
168
330
1F
100
AcDbEntity
  8
HIDDEN
100
AcDbLine
 10
-189.6
 20
-123.8230564768798
 30
0.0
 11
-189.6
 21
-123.8230564768798
 31
0.0
1001
DBPROPERTIES
1002
{
1000
PbHidd
1002
}
  0
LINE
  5
169
330
1F
100
AcDbEntity
  8
THICK
100
AcDbLine
 10
-189.6
 20
-0.0000000000000142
 30
0.0
 11
-189.6
 21
-123.8230564768798
 31
0.0
1001
DBPROPERTIES
1002
{
1000
PbThick
1002
}
  0
LINE
  5
16A
330
1F
100
AcDbEntity
  8
THICK
100
AcDbLine
 10
-193.6
 20
-110.8
 30
0.0
 11
-193.6
 21
-45.14698218042929
 31
0.0
1001
DBPROPERTIES
1002
{
1000
PbThick
1002
}
  0
ARC
  5
16B
330
1F
100
AcDbEntity
  8
THICK
100
AcDbCircle
 10
-170.4
 20
-110.8
 30
0.0
 40
23.2
100
AcDbArc
 50
180.0000198478428
 51
214.1484366292928
1001
DBPROPERTIES
1002
{
1000
PbThick
1002
}
  0
LINE
  5
16C
330
1F
100
AcDbEntity
  8
THICK
100
AcDbLine
 10
-183.92
 20
0.0000000000000073
 30
0.0
 11
-189.6
 21
0.0000000000000073
 31
0.0
1001
DBPROPERTIES
1002
{
1000
PbThick
1002
}
  0
ELLIPSE
  5
16D
330
1F
100
AcDbEntity
  8
THICK
100
AcDbEllipse
 10
-170.4
 20
-110.8
 30
0.0
 11
2.349197096180336E-15
 21
-23.2
 31
0.0
210
0.0
220
0.0
230
1.0
 40
1.0
 41
-0.9747938876073818
 42
0.0
1001
DBPROPERTIES
1002
{
1000
PbThick
1002
}
  0
LINE
  5
16E
330
1F
100
AcDbEntity
  8
THICK
100
AcDbLine
 10
170.4
 20
-134.0
 30
0.0
 11
-170.4
 21
-134.0
 31
0.0
1001
DBPROPERTIES
1002
{
1000
PbThick
1002
}
  0
ELLIPSE
  5
16F
330
1F
100
AcDbEntity
  8
THICK
100
AcDbEllipse
 10
170.4
 20
-110.8
 30
0.0
 11
1.174598548090168E-15
 21
-23.2
 31
0.0
210
0.0
220
0.0
230
1.0
 40
1.0
 41
0.0
 42
0.9747938876073822
1001
DBPROPERTIES
1002
{
1000
PbThick
1002
}
  0
ELLIPSE
  5
170
330
1F
100
AcDbEntity
  8
THICK
100
AcDbEllipse
 10
172.32
 20
-108.9
 30
0.0
 11
5.872992740450840E-16
 21
-11.6
 31
0.0
210
0.0
220
0.0
230
1.0
 40
1.0
 41
0.4182697432280393
 42
1.570796326794895
1001
DBPROPERTIES
1002
{
1000
PbThick
1002
}
  0
LINE
  5
171
330
1F
100
AcDbEntity
  8
THICK
100
AcDbLine
 10
177.031687595756
 20
-119.5
 30
0.0
 11
-177.0316875957559
 21
-119.5
 31
0.0
1001
DBPROPERTIES
1002
{
1000
PbThick
1002
}
  0
ELLIPSE
  5
172
330
1F
100
AcDbEntity
  8
THICK
100
AcDbEllipse
 10
-172.32
 20
-108.9
 30
0.0
 11
1.174598548090168E-15
 21
-11.6
 31
0.0
210
0.0
220
0.0
230
1.0
 40
1.0
 41
-1.570796326794897
 42
-0.4182697432280393
1001
DBPROPERTIES
1002
{
1000
PbThick
1002
}
  0
LINE
  5
173
330
1F
100
AcDbEntity
  8
THICK
100
AcDbLine
 10
-183.92
 20
-108.9
 30
0.0
 11
-183.92
 21
-0.0000000000000284
 31
0.0
1001
DBPROPERTIES
1002
{
1000
PbThick
1002
}
  0
LINE
  5
174
330
1F
100
AcDbEntity
  8
HIDDEN
100
AcDbLine
 10
-193.6
 20
-110.8
 30
0.0
 11
-193.6
 21
-110.8
 31
0.0
1001
DBPROPERTIES
1002
{
1000
PbHidd
1002
}
  0
LINE
  5
175
330
1F
100
AcDbEntity
  8
HIDDEN
100
AcDbLine
 10
-189.6
 20
-123.8230564768798
 30
0.0
 11
-189.6
 21
-123.8230564768798
 31
0.0
1001
DBPROPERTIES
1002
{
1000
PbHidd
1002
}
  0
LINE
  5
176
330
1F
100
AcDbEntity
  8
HIDDEN
100
AcDbLine
 10
-170.4
 20
-134.0
 30
0.0
 11
-170.4
 21
-134.0
 31
0.0
1001
DBPROPERTIES
1002
{
1000
PbHidd
1002
}
  0
LINE
  5
177
330
1F
100
AcDbEntity
  8
HIDDEN
100
AcDbLine
 10
-189.6
 20
-123.4
 30
0.0
 11
-189.6
 21
-123.4
 31
0.0
1001
DBPROPERTIES
1002
{
1000
PbHidd
1002
}
  0
LINE
  5
178
330
1F
100
AcDbEntity
  8
HIDDEN
100
AcDbLine
 10
-189.8802464050125
 20
-123.4
 30
0.0
 11
-189.8802464050125
 21
-123.4
 31
0.0
1001
DBPROPERTIES
1002
{
1000
PbHidd
1002
}
  0
LINE
  5
179
330
1F
100
AcDbEntity
  8
HIDDEN
100
AcDbLine
 10
-189.6
 20
-123.4
 30
0.0
 11
189.6
 21
-123.4
 31
0.0
1001
DBPROPERTIES
1002
{
1000
PbHidd
1002
}
  0
LINE
  5
17A
330
1F
100
AcDbEntity
  8
HIDDEN
100
AcDbLine
 10
-183.92
 20
0.0000000000000071
 30
0.0
 11
-183.92
 21
0.0000000000000071
 31
0.0
1001
DBPROPERTIES
1002
{
1000
PbHidd
1002
}
  0
LINE
  5
17B
330
1F
100
AcDbEntity
  8
HIDDEN
100
AcDbLine
 10
-189.8802464050125
 20
-123.4
 30
0.0
 11
-189.8802464050125
 21
-123.4
 31
0.0
1001
DBPROPERTIES
1002
{
1000
PbHidd
1002
}
  0
LINE
  5
17C
330
1F
100
AcDbEntity
  8
HIDDEN
100
AcDbLine
 10
189.6
 20
-123.4
 30
0.0
 11
189.6
 21
-123.4
 31
0.0
1001
DBPROPERTIES
1002
{
1000
PbHidd
1002
}
  0
LINE
  5
17D
330
1F
100
AcDbEntity
  8
HIDDEN
100
AcDbLine
 10
189.8802464050125
 20
-123.4
 30
0.0
 11
189.8802464050125
 21
-123.4
 31
0.0
1001
DBPROPERTIES
1002
{
1000
PbHidd
1002
}
  0
LINE
  5
17E
330
1F
100
AcDbEntity
  8
HIDDEN
100
AcDbLine
 10
189.6
 20
-123.4
 30
0.0
 11
189.6
 21
-123.4
 31
0.0
1001
DBPROPERTIES
1002
{
1000
PbHidd
1002
}
  0
LINE
  5
17F
330
1F
100
AcDbEntity
  8
HIDDEN
100
AcDbLine
 10
-170.4
 20
-134.0
 30
0.0
 11
-170.4
 21
-134.0
 31
0.0
1001
DBPROPERTIES
1002
{
1000
PbHidd
1002
}
  0
LINE
  5
180
330
1F
100
AcDbEntity
  8
HIDDEN
100
AcDbLine
 10
-193.6
 20
-110.8
 30
0.0
 11
-193.6
 21
-110.8
 31
0.0
1001
DBPROPERTIES
1002
{
1000
PbHidd
1002
}
  0
LINE
  5
181
330
1F
100
AcDbEntity
  8
HIDDEN
100
AcDbLine
 10
-189.6
 20
-123.8230564768798
 30
0.0
 11
-189.6
 21
-123.8230564768798
 31
0.0
1001
DBPROPERTIES
1002
{
1000
PbHidd
1002
}
  0
LINE
  5
182
330
1F
100
AcDbEntity
  8
HIDDEN
100
AcDbLine
 10
-170.4
 20
-134.0
 30
0.0
 11
-170.4
 21
-134.0
 31
0.0
1001
DBPROPERTIES
1002
{
1000
PbHidd
1002
}
  0
LINE
  5
183
330
1F
100
AcDbEntity
  8
HIDDEN
100
AcDbLine
 10
170.4
 20
-134.0
 30
0.0
 11
170.4
 21
-134.0
 31
0.0
1001
DBPROPERTIES
1002
{
1000
PbHidd
1002
}
  0
LINE
  5
184
330
1F
100
AcDbEntity
  8
HIDDEN
100
AcDbLine
 10
189.8802464050125
 20
-123.4
 30
0.0
 11
189.8802464050125
 21
-123.4
 31
0.0
1001
DBPROPERTIES
1002
{
1000
PbHidd
1002
}
  0
LINE
  5
185
330
1F
100
AcDbEntity
  8
HIDDEN
100
AcDbLine
 10
193.6
 20
-110.8
 30
0.0
 11
193.6
 21
-110.8
 31
0.0
1001
DBPROPERTIES
1002
{
1000
PbHidd
1002
}
  0
LINE
  5
186
330
1F
100
AcDbEntity
  8
HIDDEN
100
AcDbLine
 10
170.4
 20
-134.0
 30
0.0
 11
170.4
 21
-134.0
 31
0.0
1001
DBPROPERTIES
1002
{
1000
PbHidd
1002
}
  0
LINE
  5
187
330
1F
100
AcDbEntity
  8
HIDDEN
100
AcDbLine
 10
189.6
 20
-123.8230564768798
 30
0.0
 11
189.6
 21
-123.8230564768798
 31
0.0
1001
DBPROPERTIES
1002
{
1000
PbHidd
1002
}
  0
LINE
  5
188
330
1F
100
AcDbEntity
  8
HIDDEN
100
AcDbLine
 10
189.6
 20
-123.8230564768798
 30
0.0
 11
189.6
 21
-123.8230564768798
 31
0.0
1001
DBPROPERTIES
1002
{
1000
PbHidd
1002
}
  0
LINE
  5
189
330
1F
100
AcDbEntity
  8
HIDDEN
100
AcDbLine
 10
193.6
 20
-110.8
 30
0.0
 11
193.6
 21
-110.8
 31
0.0
1001
DBPROPERTIES
1002
{
1000
PbHidd
1002
}
  0
LINE
  5
18A
330
1F
100
AcDbEntity
  8
HIDDEN
100
AcDbLine
 10
193.6
 20
-110.8
 30
0.0
 11
193.6
 21
-110.8
 31
0.0
1001
DBPROPERTIES
1002
{
1000
PbHidd
1002
}
  0
LINE
  5
18B
330
1F
100
AcDbEntity
  8
HIDDEN
100
AcDbLine
 10
170.4
 20
-134.0
 30
0.0
 11
170.4
 21
-134.0
 31
0.0
1001
DBPROPERTIES
1002
{
1000
PbHidd
1002
}
  0
LINE
  5
18C
330
1F
100
AcDbEntity
  8
HIDDEN
100
AcDbLine
 10
189.6
 20
-123.8230564768798
 30
0.0
 11
189.6
 21
-123.8230564768798
 31
0.0
1001
DBPROPERTIES
1002
{
1000
PbHidd
1002
}
  0
LINE
  5
18D
330
1F
100
AcDbEntity
  8
HIDDEN
100
AcDbLine
 10
-183.92
 20
-108.9
 30
0.0
 11
-183.92
 21
-108.9
 31
0.0
1001
DBPROPERTIES
1002
{
1000
PbHidd
1002
}
  0
LINE
  5
18E
330
1F
100
AcDbEntity
  8
HIDDEN
100
AcDbLine
 10
177.0316875957559
 20
-119.5
 30
0.0
 11
177.0316875957559
 21
-119.5
 31
0.0
1001
DBPROPERTIES
1002
{
1000
PbHidd
1002
}
  0
LINE
  5
18F
330
1F
100
AcDbEntity
  8
HIDDEN
100
AcDbLine
 10
-177.0316875957559
 20
-119.5
 30
0.0
 11
-177.0316875957559
 21
-119.5
 31
0.0
1001
DBPROPERTIES
1002
{
1000
PbHidd
1002
}
  0
LINE
  5
190
330
1F
100
AcDbEntity
  8
HIDDEN
100
AcDbLine
 10
178.146182617407
 20
78.66307787036651
 30
0.0
 11
178.146182617407
 21
0.0000000000000048
 31
0.0
1001
DBPROPERTIES
1002
{
1000
PbHidd
1002
}
  0
LINE
  5
191
330
1F
100
AcDbEntity
  8
THICK
100
AcDbLine
 10
178.146182617407
 20
-0.0000000000000144
 30
0.0
 11
178.146182617407
 21
78.66307787036651
 31
0.0
1001
DBPROPERTIES
1002
{
1000
PbThick
1002
}
  0
LINE
  5
192
330
1F
100
AcDbEntity
  8
HIDDEN
100
AcDbLine
 10
-178.146182617407
 20
78.66307787036646
 30
0.0
 11
-178.146182617407
 21
0.0000000000000048
 31
0.0
1001
DBPROPERTIES
1002
{
1000
PbHidd
1002
}
  0
LINE
  5
193
330
1F
100
AcDbEntity
  8
THICK
100
AcDbLine
 10
-178.146182617407
 20
-0.0000000000000144
 30
0.0
 11
-178.146182617407
 21
78.66307787036646
 31
0.0
1001
DBPROPERTIES
1002
{
1000
PbThick
1002
}
  0
ELLIPSE
  5
194
330
1F
100
AcDbEntity
  8
HIDDEN
100
AcDbEllipse
 10
-169.4
 20
-0.000000000000003
 30
0.0
 11
19.46375839377806
 21
-28.79195050572487
 31
0.0
210
0.0
220
0.0
230
1.0
 40
0.3056146845806992
 41
1.367062962078437
 42
1.393165394642357
1001
DBPROPERTIES
1002
{
1000
PbHidd
1002
}
  0
ELLIPSE
  5
195
330
1F
100
AcDbEntity
  8
HIDDEN
100
AcDbEllipse
 10
-169.4
 20
-0.000000000000003
 30
0.0
 11
-19.46375839377807
 21
-28.79195050572486
 31
0.0
210
0.0
220
0.0
230
1.0
 40
0.3056146845806993
 41
1.774529691511357
 42
2.064231021601438
1001
DBPROPERTIES
1002
{
1000
PbHidd
1002
}
  0
ELLIPSE
  5
196
330
1F
100
AcDbEntity
  8
HIDDEN
100
AcDbEllipse
 10
-203.7560151504844
 20
0.0000000000000012
 30
0.0
 11
-143.2289213561893
 21
23.65196410247898
 31
0.0
210
0.0
220
0.0
230
1.0
 40
0.1219213458618123
 41
-1.917077389249192
 42
-1.900260646159325
1001
DBPROPERTIES
1002
{
1000
PbHidd
1002
}
  0
ELLIPSE
  5
197
330
1F
100
AcDbEntity
  8
HIDDEN
100
AcDbEllipse
 10
-171.8721359549996
 20
-0.0000000000000027
 30
0.0
 11
-19.46375839377807
 21
-28.79195050572486
 31
0.0
210
0.0
220
0.0
230
1.0
 40
0.3056146845806993
 41
1.896985203203636
 42
2.081047764691306
1001
DBPROPERTIES
1002
{
1000
PbHidd
1002
}
  0
LINE
  5
198
330
1F
100
AcDbEntity
  8
HIDDEN
100
AcDbLine
 10
-157.3
 20
3.591201096155653
 30
0.0
 11
-157.3
 21
16.65422123770118
 31
0.0
1001
DBPROPERTIES
1002
{
1000
PbHidd
1002
}
  0
LINE
  5
199
330
1F
100
AcDbEntity
  8
HIDDEN
100
AcDbLine
 10
-157.3
 20
16.65422123770118
 30
0.0
 11
-152.4313280305645
 21
23.35537331313704
 31
0.0
1001
DBPROPERTIES
1002
{
1000
PbHidd
1002
}
  0
ELLIPSE
  5
19A
330
1F
100
AcDbEntity
  8
HIDDEN
100
AcDbEllipse
 10
-203.7560151504844
 20
0.0000000000000012
 30
0.0
 11
-143.2479253314141
 21
8.637541321000342
 31
0.0
210
0.0
220
0.0
230
1.0
 40
0.1961811465503412
 41
-1.925379279749606
 42
-1.908562536659739
1001
DBPROPERTIES
1002
{
1000
PbHidd
1002
}
  0
LINE
  5
19B
330
1F
100
AcDbEntity
  8
HIDDEN
100
AcDbLine
 10
-154.687690549967
 20
23.65235996881091
 30
0.0
 11
-157.3
 21
20.05682447110935
 31
0.0
1001
DBPROPERTIES
1002
{
1000
PbHidd
1002
}
  0
LINE
  5
19C
330
1F
100
AcDbEntity
  8
HIDDEN
100
AcDbLine
 10
-157.3
 20
20.05682447110935
 30
0.0
 11
-157.3
 21
27.71442039480041
 31
0.0
1001
DBPROPERTIES
1002
{
1000
PbHidd
1002
}
  0
ELLIPSE
  5
19D
330
1F
100
AcDbEntity
  8
HIDDEN
100
AcDbEllipse
 10
-169.4
 20
-0.000000000000003
 30
0.0
 11
19.46375839377807
 21
28.79195050572486
 31
0.0
210
0.0
220
0.0
230
1.0
 40
0.3056146845806992
 41
0.2281912999853536
 42
0.5439950626393567
1001
DBPROPERTIES
1002
{
1000
PbHidd
1002
}
  0
ELLIPSE
  5
19E
330
1F
100
AcDbEntity
  8
HIDDEN
100
AcDbEllipse
 10
-203.7560151504844
 20
0.0000000000000012
 30
0.0
 11
-143.2444036567846
 21
-10.23857850223282
 31
0.0
210
0.0
220
0.0
230
1.0
 40
0.1923956436423628
 41
-1.950958888572305
 42
-1.934142145482438
1001
DBPROPERTIES
1002
{
1000
PbHidd
1002
}
  0
ELLIPSE
  5
19F
330
1F
100
AcDbEntity
  8
HIDDEN
100
AcDbEllipse
 10
-171.8721359549996
 20
-0.0000000000000027
 30
0.0
 11
19.46375839377807
 21
28.79195050572486
 31
0.0
210
0.0
220
0.0
230
1.0
 40
0.3056146845806992
 41
0.2113745568954863
 42
0.3954371183831559
1001
DBPROPERTIES
1002
{
1000
PbHidd
1002
}
  0
LINE
  5
1A0
330
1F
100
AcDbEntity
  8
HIDDEN
100
AcDbLine
 10
-157.3
 20
28.86142260448991
 30
0.0
 11
-157.3
 21
29.39999999728294
 31
0.0
1001
DBPROPERTIES
1002
{
1000
PbHidd
1002
}
  0
LINE
  5
1A1
330
1F
100
AcDbEntity
  8
HIDDEN
100
AcDbLine
 10
-157.3
 20
28.18865293958915
 30
0.0
 11
-157.3
 21
29.4
 31
0.0
1001
DBPROPERTIES
1002
{
1000
PbHidd
1002
}
  0
ELLIPSE
  5
1A2
330
1F
100
AcDbEntity
  8
HIDDEN
100
AcDbEllipse
 10
-169.4
 20
-0.000000000000003
 30
0.0
 11
11.38825940507496
 21
28.49936317382637
 31
0.0
210
0.0
220
0.0
230
1.0
 40
0.6340950937257176
 41
-0.355700960986512
 42
-0.0398971983325088
1001
DBPROPERTIES
1002
{
1000
PbHidd
1002
}
  0
ELLIPSE
  5
1A3
330
1F
100
AcDbEntity
  8
HIDDEN
100
AcDbEllipse
 10
-203.7560151504844
 20
0.0000000000000012
 30
0.0
 11
-143.2311806097329
 21
-24.5727674321591
 31
0.0
210
0.0
220
0.0
230
1.0
 40
0.112693504132748
 41
-1.956539338263542
 42
-1.939722595173675
1001
DBPROPERTIES
1002
{
1000
PbHidd
1002
}
  0
ELLIPSE
  5
1A4
330
1F
100
AcDbEntity
  8
HIDDEN
100
AcDbEllipse
 10
-171.8721359549996
 20
-0.0000000000000027
 30
0.0
 11
11.38825940507496
 21
28.49936317382637
 31
0.0
210
0.0
220
0.0
230
1.0
 40
0.6340950937257176
 41
-0.3725177040763792
 42
-0.188455142588708
1001
DBPROPERTIES
1002
{
1000
PbHidd
1002
}
  0
LINE
  5
1A5
330
1F
100
AcDbEntity
  8
HIDDEN
100
AcDbLine
 10
-157.3
 20
26.64193826662984
 30
0.0
 11
-157.3
 21
17.89577815852948
 31
0.0
1001
DBPROPERTIES
1002
{
1000
PbHidd
1002
}
  0
ELLIPSE
  5
1A6
330
1F
100
AcDbEntity
  8
HIDDEN
100
AcDbEllipse
 10
-169.4
 20
-0.000000000000003
 30
0.0
 11
11.38825940507495
 21
-28.49936317382637
 31
0.0
210
0.0
220
0.0
230
1.0
 40
0.6340950937257178
 41
1.66125389296022
 42
1.977057655614223
1001
DBPROPERTIES
1002
{
1000
PbHidd
1002
}
  0
ELLIPSE
  5
1A7
330
1F
100
AcDbEntity
  8
HIDDEN
100
AcDbEllipse
 10
-203.7560151504844
 20
0.0000000000000012
 30
0.0
 11
143.257857189159
 21
29.3895433389895
 31
0.0
210
0.0
220
0.0
230
1.0
 40
0.0054730335081041
 41
-1.222324167877753
 42
-1.205507424787885
1001
DBPROPERTIES
1002
{
1000
PbHidd
1002
}
  0
ELLIPSE
  5
1A8
330
1F
100
AcDbEntity
  8
HIDDEN
100
AcDbEllipse
 10
-171.8721359549996
 20
-0.0000000000000027
 30
0.0
 11
11.38825940507495
 21
-28.49936317382637
 31
0.0
210
0.0
220
0.0
230
1.0
 40
0.6340950937257178
 41
1.644437149870353
 42
1.828499711358023
1001
DBPROPERTIES
1002
{
1000
PbHidd
1002
}
  0
LINE
  5
1A9
330
1F
100
AcDbEntity
  8
HIDDEN
100
AcDbLine
 10
-157.3
 20
14.24613903709363
 30
0.0
 11
-157.3
 21
0.7673243760395511
 31
0.0
1001
DBPROPERTIES
1002
{
1000
PbHidd
1002
}
  0
ELLIPSE
  5
1AA
330
1F
100
AcDbEntity
  8
HIDDEN
100
AcDbEllipse
 10
-166.8375868047183
 20
-5.606052866272722
 30
0.0
 11
-13.64771964802705
 21
23.21888750151246
 31
0.0
210
0.0
220
0.0
230
1.0
 40
0.3454915028125264
 41
-1.532267245839998
 42
-0.6909168709471794
1001
DBPROPERTIES
1002
{
1000
PbHidd
1002
}
  0
ELLIPSE
  5
1AB
330
1F
100
AcDbEntity
  8
HIDDEN
100
AcDbEllipse
 10
-160.9301732620166
 20
3.620959923239507
 30
0.0
 11
20.29291453718464
 21
20.34454877240637
 31
0.0
210
0.0
220
0.0
230
1.0
 40
0.565621871163285
 41
1.486137151356395
 42
1.561259301185053
1001
DBPROPERTIES
1002
{
1000
PbHidd
1002
}
  0
ELLIPSE
  5
1AC
330
1F
100
AcDbEntity
  8
HIDDEN
100
AcDbEllipse
 10
-165.2195528159684
 20
-4.654996349977568
 30
0.0
 11
14.04784096272761
 21
-23.89961454109029
 31
0.0
210
0.0
220
0.0
230
1.0
 40
0.3454915028125264
 41
1.594660608211815
 42
2.443923328919537
1001
DBPROPERTIES
1002
{
1000
PbHidd
1002
}
  0
ELLIPSE
  5
1AD
330
1F
100
AcDbEntity
  8
HIDDEN
100
AcDbEllipse
 10
-166.8375868047183
 20
-2.141321652187413
 30
0.0
 11
-5.899926280329405
 21
26.27865784787559
 31
0.0
210
0.0
220
0.0
230
1.0
 40
0.5590169943749477
 41
-1.028501137763784
 42
-0.0334147824865132
1001
DBPROPERTIES
1002
{
1000
PbHidd
1002
}
  0
ELLIPSE
  5
1AE
330
1F
100
AcDbEntity
  8
HIDDEN
100
AcDbEllipse
 10
-160.9301732620166
 20
0.8623313816852646
 30
0.0
 11
6.641082190012517
 21
27.95709342030747
 31
0.0
210
0.0
220
0.0
230
1.0
 40
0.7999147975988684
 41
0.7198570301715118
 42
0.7949791800001693
1001
DBPROPERTIES
1002
{
1000
PbHidd
1002
}
  0
ELLIPSE
  5
1AF
330
1F
100
AcDbEntity
  8
HIDDEN
100
AcDbEllipse
 10
-165.2195528159684
 20
-1.778050388184733
 30
0.0
 11
6.072899225319748
 21
-27.04909066726445
 31
0.0
210
0.0
220
0.0
230
1.0
 40
0.5590169943749477
 41
2.252162696672482
 42
3.101425417380203
1001
DBPROPERTIES
1002
{
1000
PbHidd
1002
}
  0
ELLIPSE
  5
1B0
330
1F
100
AcDbEntity
  8
HIDDEN
100
AcDbEllipse
 10
-166.8375868047183
 20
2.141321652187408
 30
0.0
 11
5.899926280329415
 21
26.27865784787559
 31
0.0
210
0.0
220
0.0
230
1.0
 40
0.5590169943749475
 41
-0.2646919644160304
 42
0.7303943908612409
1001
DBPROPERTIES
1002
{
1000
PbHidd
1002
}
  0
ELLIPSE
  5
1B1
330
1F
100
AcDbEntity
  8
HIDDEN
100
AcDbEllipse
 10
-160.9301732620166
 20
-2.225678438107092
 30
0.0
 11
-15.01944457544032
 21
24.49733311631243
 31
0.0
210
0.0
220
0.0
230
1.0
 40
0.7286674594556767
 41
-0.268295376217591
 42
-0.1931732263889345
1001
DBPROPERTIES
1002
{
1000
PbHidd
1002
}
  0
ELLIPSE
  5
1B2
330
1F
100
AcDbEntity
  8
HIDDEN
100
AcDbEllipse
 10
-165.2195528159684
 20
1.778050388184726
 30
0.0
 11
-6.07289922531976
 21
-27.04909066726446
 31
0.0
210
0.0
220
0.0
230
1.0
 40
0.5590169943749473
 41
3.015971870020235
 42
3.865234590727957
1001
DBPROPERTIES
1002
{
1000
PbHidd
1002
}
  0
ELLIPSE
  5
1B3
330
1F
100
AcDbEntity
  8
HIDDEN
100
AcDbEllipse
 10
-166.8375868047183
 20
5.606052866272718
 30
0.0
 11
13.64771964802705
 21
23.21888750151245
 31
0.0
210
0.0
220
0.0
230
1.0
 40
0.3454915028125264
 41
0.3928101240446356
 42
1.387896479321907
1001
DBPROPERTIES
1002
{
1000
PbHidd
1002
}
  0
ELLIPSE
  5
1B4
330
1F
100
AcDbEntity
  8
HIDDEN
100
AcDbEllipse
 10
-160.9301732620166
 20
-4.463554742570319
 30
0.0
 11
-22.2930304982414
 21
18.13074285214976
 31
0.0
210
0.0
220
0.0
230
1.0
 40
0.3790939182964528
 41
-0.8405412140764765
 42
-0.7654190642478188
1001
DBPROPERTIES
1002
{
1000
PbHidd
1002
}
  0
ELLIPSE
  5
1B5
330
1F
100
AcDbEntity
  8
HIDDEN
100
AcDbEllipse
 10
-165.2195528159684
 20
4.654996349977562
 30
0.0
 11
-14.04784096272762
 21
-23.89961454109029
 31
0.0
210
0.0
220
0.0
230
1.0
 40
0.3454915028125264
 41
-2.609711348698687
 42
-1.760448627990964
1001
DBPROPERTIES
1002
{
1000
PbHidd
1002
}
  0
LINE
  5
1B6
330
1F
100
AcDbEntity
  8
HIDDEN
100
AcDbLine
 10
-157.3
 20
20.05682447110935
 30
0.0
 11
-172.2434405753571
 21
-0.5110569664475051
 31
0.0
1001
DBPROPERTIES
1002
{
1000
PbHidd
1002
}
  0
ELLIPSE
  5
1B7
330
1F
100
AcDbEntity
  8
HIDDEN
100
AcDbEllipse
 10
-160.9301732620166
 20
-4.996504846017475
 30
0.0
 11
-23.24714303339049
 21
16.89003806838176
 31
0.0
210
0.0
220
0.0
230
1.0
 40
0.1152806147236408
 41
1.148047095839787
 42
1.223169245668445
1001
DBPROPERTIES
1002
{
1000
PbHidd
1002
}
  0
LINE
  5
1B8
330
1F
100
AcDbEntity
  8
HIDDEN
100
AcDbLine
 10
-170.6803521623545
 20
-1.762253568100889
 30
0.0
 11
-157.3
 21
16.65422123770117
 31
0.0
1001
DBPROPERTIES
1002
{
1000
PbHidd
1002
}
  0
ELLIPSE
  5
1B9
330
1F
100
AcDbEntity
  8
HIDDEN
100
AcDbEllipse
 10
-166.8375868047183
 20
5.606052866272717
 30
0.0
 11
13.64771964802706
 21
23.21888750151246
 31
0.0
210
0.0
220
0.0
230
1.0
 40
0.3454915028125264
 41
-2.450675782642613
 42
-1.455589427365342
1001
DBPROPERTIES
1002
{
1000
PbHidd
1002
}
  0
ELLIPSE
  5
1BA
330
1F
100
AcDbEntity
  8
HIDDEN
100
AcDbEllipse
 10
-160.9301732620166
 20
-3.620959923239516
 30
0.0
 11
-20.29291453718463
 21
20.34454877240637
 31
0.0
210
0.0
220
0.0
230
1.0
 40
0.5656218711632851
 41
1.58033335240474
 42
1.655455502233399
1001
DBPROPERTIES
1002
{
1000
PbHidd
1002
}
  0
ELLIPSE
  5
1BB
330
1F
100
AcDbEntity
  8
HIDDEN
100
AcDbEllipse
 10
-165.2195528159684
 20
4.654996349977562
 30
0.0
 11
-14.04784096272762
 21
-23.89961454109028
 31
0.0
210
0.0
220
0.0
230
1.0
 40
0.3454915028125264
 41
0.6976693246702563
 42
1.546932045377978
1001
DBPROPERTIES
1002
{
1000
PbHidd
1002
}
  0
LINE
  5
1BC
330
1F
100
AcDbEntity
  8
HIDDEN
100
AcDbLine
 10
-157.3
 20
-14.24613903709365
 30
0.0
 11
-157.3
 21
-0.7673243760396081
 31
0.0
1001
DBPROPERTIES
1002
{
1000
PbHidd
1002
}
  0
ELLIPSE
  5
1BD
330
1F
100
AcDbEntity
  8
HIDDEN
100
AcDbEllipse
 10
-166.8375868047183
 20
2.141321652187406
 30
0.0
 11
5.899926280329412
 21
26.2786578478756
 31
0.0
210
0.0
220
0.0
230
1.0
 40
0.5590169943749475
 41
-3.10817787110328
 42
-2.11309151582601
1001
DBPROPERTIES
1002
{
1000
PbHidd
1002
}
  0
ELLIPSE
  5
1BE
330
1F
100
AcDbEntity
  8
HIDDEN
100
AcDbEllipse
 10
-160.9301732620166
 20
-0.8623313816852722
 30
0.0
 11
-6.641082190012503
 21
27.95709342030747
 31
0.0
210
0.0
220
0.0
230
1.0
 40
0.7999147975988685
 41
2.346613473589625
 42
2.421735623418283
1001
DBPROPERTIES
1002
{
1000
PbHidd
1002
}
  0
ELLIPSE
  5
1BF
330
1F
100
AcDbEntity
  8
HIDDEN
100
AcDbEllipse
 10
-165.2195528159684
 20
1.778050388184724
 30
0.0
 11
-6.072899225319756
 21
-27.04909066726447
 31
0.0
210
0.0
220
0.0
230
1.0
 40
0.5590169943749475
 41
0.0401672362095902
 42
0.8894299569173121
1001
DBPROPERTIES
1002
{
1000
PbHidd
1002
}
  0
LINE
  5
1C0
330
1F
100
AcDbEntity
  8
HIDDEN
100
AcDbLine
 10
-157.3
 20
-26.64193826662985
 30
0.0
 11
-157.3
 21
-17.89577815852953
 31
0.0
1001
DBPROPERTIES
1002
{
1000
PbHidd
1002
}
  0
ELLIPSE
  5
1C1
330
1F
100
AcDbEntity
  8
HIDDEN
100
AcDbEllipse
 10
-166.8375868047183
 20
-2.141321652187416
 30
0.0
 11
-5.899926280329411
 21
26.27865784787559
 31
0.0
210
0.0
220
0.0
230
1.0
 40
0.5590169943749475
 41
2.411198262728552
 42
3.406284618005823
1001
DBPROPERTIES
1002
{
1000
PbHidd
1002
}
  0
ELLIPSE
  5
1C2
330
1F
100
AcDbEntity
  8
HIDDEN
100
AcDbEllipse
 10
-160.9301732620166
 20
2.225678438107085
 30
0.0
 11
15.01944457544032
 21
24.49733311631242
 31
0.0
210
0.0
220
0.0
230
1.0
 40
0.728667459455677
 41
-2.948419427200859
 42
-2.873297277372203
1001
DBPROPERTIES
1002
{
1000
PbHidd
1002
}
  0
ELLIPSE
  5
1C3
330
1F
100
AcDbEntity
  8
HIDDEN
100
AcDbEllipse
 10
-165.2195528159684
 20
-1.778050388184735
 30
0.0
 11
6.072899225319755
 21
-27.04909066726446
 31
0.0
210
0.0
220
0.0
230
1.0
 40
0.5590169943749475
 41
-0.7236419371381624
 42
-0.2436046566832882
1001
DBPROPERTIES
1002
{
1000
PbHidd
1002
}
  0
ELLIPSE
  5
1C4
330
1F
100
AcDbEntity
  8
HIDDEN
100
AcDbEllipse
 10
-165.2195528159684
 20
-1.778050388184735
 30
0.0
 11
6.072899225319755
 21
-27.04909066726446
 31
0.0
210
0.0
220
0.0
230
1.0
 40
0.5590169943749475
 41
-0.2436046566832883
 42
0.1256207835695596
1001
DBPROPERTIES
1002
{
1000
PbHidd
1002
}
  0
LINE
  5
1C5
330
1F
100
AcDbEntity
  8
HIDDEN
100
AcDbLine
 10
-157.3
 20
-29.40000000000001
 30
0.0
 11
-157.3
 21
-28.18865293958916
 31
0.0
1001
DBPROPERTIES
1002
{
1000
PbHidd
1002
}
  0
ELLIPSE
  5
1C6
330
1F
100
AcDbEntity
  8
HIDDEN
100
AcDbEllipse
 10
-166.8375868047183
 20
-5.606052866272726
 30
0.0
 11
-13.64771964802705
 21
23.21888750151246
 31
0.0
210
0.0
220
0.0
230
1.0
 40
0.3454915028125262
 41
1.753696174267886
 42
2.748782529545159
1001
DBPROPERTIES
1002
{
1000
PbHidd
1002
}
  0
ELLIPSE
  5
1C7
330
1F
100
AcDbEntity
  8
HIDDEN
100
AcDbEllipse
 10
-160.9301732620166
 20
4.463554742570311
 30
0.0
 11
22.2930304982414
 21
18.13074285214975
 31
0.0
210
0.0
220
0.0
230
1.0
 40
0.3790939182964526
 41
-2.376173589341972
 42
-2.301051439513314
1001
DBPROPERTIES
1002
{
1000
PbHidd
1002
}
  0
ELLIPSE
  5
1C8
330
1F
100
AcDbEntity
  8
HIDDEN
100
AcDbEllipse
 10
-165.2195528159684
 20
-4.654996349977569
 30
0.0
 11
14.04784096272761
 21
-23.89961454109029
 31
0.0
210
0.0
220
0.0
230
1.0
 40
0.3454915028125262
 41
-1.381144025598829
 42
-0.531881304891106
1001
DBPROPERTIES
1002
{
1000
PbHidd
1002
}
  0
LINE
  5
1C9
330
1F
100
AcDbEntity
  8
HIDDEN
100
AcDbLine
 10
-157.3
 20
-20.05682447110935
 30
0.0
 11
-157.3
 21
-27.71442039480041
 31
0.0
1001
DBPROPERTIES
1002
{
1000
PbHidd
1002
}
  0
ELLIPSE
  5
1CA
330
1F
100
AcDbEntity
  8
HIDDEN
100
AcDbEllipse
 10
-160.9301732620166
 20
4.996504846017467
 30
0.0
 11
23.2471430333905
 21
16.89003806838175
 31
0.0
210
0.0
220
0.0
230
1.0
 40
0.1152806147236408
 41
1.918423407921348
 42
1.993545557750005
1001
DBPROPERTIES
1002
{
1000
PbHidd
1002
}
  0
LINE
  5
1CB
330
1F
100
AcDbEntity
  8
HIDDEN
100
AcDbLine
 10
-172.2434405753571
 20
-15.29257776526062
 30
0.0
 11
-174.0728919814142
 21
-33.09344837075333
 31
0.0
1001
DBPROPERTIES
1002
{
1000
PbHidd
1002
}
  0
LINE
  5
1CC
330
1F
100
AcDbEntity
  8
HIDDEN
100
AcDbLine
 10
-139.3525271669654
 20
20.36559300930697
 30
0.0
 11
-154.687690549967
 21
8.871180640430653
 31
0.0
1001
DBPROPERTIES
1002
{
1000
PbHidd
1002
}
  0
ELLIPSE
  5
1CD
330
1F
100
AcDbEntity
  8
HIDDEN
100
AcDbEllipse
 10
-171.0180339887499
 20
-3.369165088054524
 30
0.0
 11
-29.05093718817961
 21
-49.42440640501861
 31
0.0
210
0.0
220
0.0
230
1.0
 40
0.3454915028125264
 41
1.039406675134543
 42
2.261137151530573
1001
DBPROPERTIES
1002
{
1000
PbHidd
1002
}
  0
ELLIPSE
  5
1CE
330
1F
100
AcDbEntity
  8
HIDDEN
100
AcDbEllipse
 10
-171.0180339887499
 20
-32.74667199763235
 30
0.0
 11
-3.724479126689693
 21
-6.336462359617769
 31
0.0
210
0.0
220
0.0
230
1.0
 40
0.3454915028125265
 41
-1.316787815057802
 42
0.0000618428981072
1001
DBPROPERTIES
1002
{
1000
PbHidd
1002
}
  0
ELLIPSE
  5
1CF
330
1F
100
AcDbEntity
  8
HIDDEN
100
AcDbEllipse
 10
-171.0180339887499
 20
-32.74667199763235
 30
0.0
 11
-3.724479126689693
 21
-6.336462359617769
 31
0.0
210
0.0
220
0.0
230
1.0
 40
0.3454915028125265
 41
0.0000618428981072
 42
1.039406675134543
1001
DBPROPERTIES
1002
{
1000
PbHidd
1002
}
  0
LINE
  5
1D0
330
1F
100
AcDbEntity
  8
HIDDEN
100
AcDbLine
 10
-152.4313280305644
 20
8.398580804047509
 30
0.0
 11
-137.7344931782154
 21
19.41453649301181
 31
0.0
1001
DBPROPERTIES
1002
{
1000
PbHidd
1002
}
  0
LINE
  5
1D1
330
1F
100
AcDbEntity
  8
HIDDEN
100
AcDbLine
 10
-137.7344931782155
 20
19.4145364930118
 30
0.0
 11
-139.3525271669654
 21
20.36559300930696
 31
0.0
1001
DBPROPERTIES
1002
{
1000
PbHidd
1002
}
  0
LINE
  5
1D2
330
1F
100
AcDbEntity
  8
HIDDEN
100
AcDbLine
 10
-172.4548579926643
 20
-34.04450488704848
 30
0.0
 11
-170.6803521623545
 21
-16.77826399677175
 31
0.0
1001
DBPROPERTIES
1002
{
1000
PbHidd
1002
}
  0
LINE
  5
1D3
330
1F
100
AcDbEntity
  8
HIDDEN
100
AcDbLine
 10
-172.4548579926643
 20
-34.04450488704848
 30
0.0
 11
-174.0728919814142
 21
-33.09344837075333
 31
0.0
1001
DBPROPERTIES
1002
{
1000
PbHidd
1002
}
  0
LINE
  5
1D4
330
1F
100
AcDbEntity
  8
HIDDEN
100
AcDbLine
 10
-169.4
 20
-38.01795011827718
 30
0.0
 11
-171.0180339887499
 21
-37.06689360198203
 31
0.0
1001
DBPROPERTIES
1002
{
1000
PbHidd
1002
}
  0
ELLIPSE
  5
1D5
330
1F
100
AcDbEntity
  8
HIDDEN
100
AcDbEllipse
 10
-169.4
 20
-33.6977285139275
 30
0.0
 11
3.724479126689693
 21
6.336462359617769
 31
0.0
210
0.0
220
0.0
230
1.0
 40
0.3454915028125265
 41
-3.141530810691687
 42
-2.10218597845525
1001
DBPROPERTIES
1002
{
1000
PbHidd
1002
}
  0
ELLIPSE
  5
1D6
330
1F
100
AcDbEntity
  8
HIDDEN
100
AcDbEllipse
 10
-169.4
 20
-33.6977285139275
 30
0.0
 11
3.724479126689693
 21
6.336462359617769
 31
0.0
210
0.0
220
0.0
230
1.0
 40
0.3454915028125265
 41
1.824804838531991
 42
3.1416544964879
1001
DBPROPERTIES
1002
{
1000
PbHidd
1002
}
  0
ELLIPSE
  5
1D7
330
1F
100
AcDbEntity
  8
HIDDEN
100
AcDbEllipse
 10
-169.4
 20
-4.320221604349677
 30
0.0
 11
29.05093718817961
 21
49.42440640501861
 31
0.0
210
0.0
220
0.0
230
1.0
 40
0.3454915028125264
 41
-2.10218597845525
 42
-0.8804555020592197
1001
DBPROPERTIES
1002
{
1000
PbHidd
1002
}
  0
ELLIPSE
  5
1D8
330
1F
100
AcDbEntity
  8
HIDDEN
100
AcDbEllipse
 10
-169.4
 20
-0.000000000000003
 30
0.0
 11
-19.46375839377807
 21
-28.79195050572486
 31
0.0
210
0.0
220
0.0
230
1.0
 40
0.3056146845806993
 41
1.748427258947436
 42
1.774529691511357
1001
DBPROPERTIES
1002
{
1000
PbHidd
1002
}
  0
ELLIPSE
  5
1D9
330
1F
100
AcDbEntity
  8
HIDDEN
100
AcDbEllipse
 10
-166.8375868047183
 20
-5.606052866272722
 30
0.0
 11
-13.64771964802705
 21
23.21888750151246
 31
0.0
210
0.0
220
0.0
230
1.0
 40
0.3454915028125264
 41
-1.68600322622445
 42
-1.532267245839998
1001
DBPROPERTIES
1002
{
1000
PbHidd
1002
}
  0
LINE
  5
1DA
330
1F
100
AcDbEntity
  8
HIDDEN
100
AcDbLine
 10
-157.3
 20
-3.591201096155646
 30
0.0
 11
-157.3
 21
-16.65422123770118
 31
0.0
1001
DBPROPERTIES
1002
{
1000
PbHidd
1002
}
  0
LINE
  5
1DB
330
1F
100
AcDbEntity
  8
HIDDEN
100
AcDbLine
 10
-172.2434405753571
 20
-24.23285363334507
 30
0.0
 11
-174.0728919814142
 21
-50.51724346269368
 31
0.0
1001
DBPROPERTIES
1002
{
1000
PbHidd
1002
}
  0
ELLIPSE
  5
1DC
330
1F
100
AcDbEntity
  8
HIDDEN
100
AcDbEllipse
 10
-171.8721359549996
 20
-0.0000000000000027
 30
0.0
 11
-11.38825940507495
 21
-28.49936317382637
 31
0.0
210
0.0
220
0.0
230
1.0
 40
0.6340950937257179
 41
1.31309294223177
 42
1.49715550371944
1001
DBPROPERTIES
1002
{
1000
PbHidd
1002
}
  0
LINE
  5
1DD
330
1F
100
AcDbEntity
  8
HIDDEN
100
AcDbLine
 10
-139.3525271669654
 20
-11.80717990653988
 30
0.0
 11
-154.6876905499669
 21
-9.298488172254054
 31
0.0
1001
DBPROPERTIES
1002
{
1000
PbHidd
1002
}
  0
ELLIPSE
  5
1DE
330
1F
100
AcDbEntity
  8
HIDDEN
100
AcDbEllipse
 10
-171.0180339887499
 20
-6.6269941307667
 30
0.0
 11
-12.55875649596287
 21
-55.93752349966088
 31
0.0
210
0.0
220
0.0
230
1.0
 40
0.5590169943749475
 41
0.3819045866738771
 42
1.603635063069908
1001
DBPROPERTIES
1002
{
1000
PbHidd
1002
}
  0
ELLIPSE
  5
1DF
330
1F
100
AcDbEntity
  8
HIDDEN
100
AcDbEllipse
 10
-171.0180339887499
 20
-54.16079881519849
 30
0.0
 11
-1.610096986661906
 21
-7.171477371751394
 31
0.0
210
0.0
220
0.0
230
1.0
 40
0.5590169943749475
 41
-1.97428990351847
 42
0.0000004595871228
1001
DBPROPERTIES
1002
{
1000
PbHidd
1002
}
  0
ELLIPSE
  5
1E0
330
1F
100
AcDbEntity
  8
HIDDEN
100
AcDbEllipse
 10
-171.0180339887499
 20
-54.16079881519849
 30
0.0
 11
-1.610096986661906
 21
-7.171477371751394
 31
0.0
210
0.0
220
0.0
230
1.0
 40
0.5590169943749475
 41
0.0000004595871227
 42
0.3819045866738772
1001
DBPROPERTIES
1002
{
1000
PbHidd
1002
}
  0
ELLIPSE
  5
1E1
330
1F
100
AcDbEntity
  8
HIDDEN
100
AcDbEllipse
 10
-203.7560151504844
 20
0.0000000000000012
 30
0.0
 11
-143.257857189159
 21
29.38954333898955
 31
0.0
210
0.0
220
0.0
230
1.0
 40
0.0054730335081041
 41
-1.936085228801909
 42
-1.919268485712036
1001
DBPROPERTIES
1002
{
1000
PbHidd
1002
}
  0
LINE
  5
1E2
330
1F
100
AcDbEntity
  8
HIDDEN
100
AcDbLine
 10
-152.4313280305644
 20
-9.766184114925752
 30
0.0
 11
-137.7344931782154
 21
-12.17045117054256
 31
0.0
1001
DBPROPERTIES
1002
{
1000
PbHidd
1002
}
  0
LINE
  5
1E3
330
1F
100
AcDbEntity
  8
HIDDEN
100
AcDbLine
 10
-137.7344931782155
 20
-12.17045117054256
 30
0.0
 11
-139.3525271669654
 21
-11.80717990653988
 31
0.0
1001
DBPROPERTIES
1002
{
1000
PbHidd
1002
}
  0
LINE
  5
1E4
330
1F
100
AcDbEntity
  8
HIDDEN
100
AcDbLine
 10
-172.4548579926643
 20
-50.88051472669635
 30
0.0
 11
-170.6803521623545
 21
-25.38554785089444
 31
0.0
1001
DBPROPERTIES
1002
{
1000
PbHidd
1002
}
  0
LINE
  5
1E5
330
1F
100
AcDbEntity
  8
HIDDEN
100
AcDbLine
 10
-172.4548579926643
 20
-50.88051472669635
 30
0.0
 11
-174.0728919814142
 21
-50.51724346269368
 31
0.0
1001
DBPROPERTIES
1002
{
1000
PbHidd
1002
}
  0
LINE
  5
1E6
330
1F
100
AcDbEntity
  8
HIDDEN
100
AcDbLine
 10
-169.4
 20
-61.51433547397055
 30
0.0
 11
-171.0180339887499
 21
-61.15106420996787
 31
0.0
1001
DBPROPERTIES
1002
{
1000
PbHidd
1002
}
  0
ELLIPSE
  5
1E7
330
1F
100
AcDbEntity
  8
HIDDEN
100
AcDbEllipse
 10
-169.4
 20
-54.52407007920117
 30
0.0
 11
1.610096986661906
 21
7.171477371751394
 31
0.0
210
0.0
220
0.0
230
1.0
 40
0.5590169943749475
 41
-3.141592194002671
 42
-2.759688066915917
1001
DBPROPERTIES
1002
{
1000
PbHidd
1002
}
  0
ELLIPSE
  5
1E8
330
1F
100
AcDbEntity
  8
HIDDEN
100
AcDbEllipse
 10
-169.4
 20
-54.52407007920117
 30
0.0
 11
1.610096986661906
 21
7.171477371751394
 31
0.0
210
0.0
220
0.0
230
1.0
 40
0.5590169943749475
 41
1.167302750071323
 42
3.141593113176915
1001
DBPROPERTIES
1002
{
1000
PbHidd
1002
}
  0
ELLIPSE
  5
1E9
330
1F
100
AcDbEntity
  8
HIDDEN
100
AcDbEllipse
 10
-169.4
 20
-6.990265394769381
 30
0.0
 11
12.55875649596287
 21
55.93752349966088
 31
0.0
210
0.0
220
0.0
230
1.0
 40
0.5590169943749475
 41
-2.759688066915917
 42
-1.537957590519886
1001
DBPROPERTIES
1002
{
1000
PbHidd
1002
}
  0
ELLIPSE
  5
1EA
330
1F
100
AcDbEntity
  8
HIDDEN
100
AcDbEllipse
 10
-169.4
 20
-0.000000000000003
 30
0.0
 11
-11.38825940507495
 21
-28.49936317382637
 31
0.0
210
0.0
220
0.0
230
1.0
 40
0.6340950937257179
 41
1.164534997975569
 42
1.480338760629573
1001
DBPROPERTIES
1002
{
1000
PbHidd
1002
}
  0
LINE
  5
1EB
330
1F
100
AcDbEntity
  8
HIDDEN
100
AcDbLine
 10
-172.2434405753571
 20
-23.9170030578931
 30
0.0
 11
-174.0728919814142
 21
-48.64516856983848
 31
0.0
1001
DBPROPERTIES
1002
{
1000
PbHidd
1002
}
  0
ELLIPSE
  5
1EC
330
1F
100
AcDbEntity
  8
HIDDEN
100
AcDbEllipse
 10
-171.8721359549996
 20
-0.0000000000000027
 30
0.0
 11
-11.38825940507496
 21
28.49936317382637
 31
0.0
210
0.0
220
0.0
230
1.0
 40
0.6340950937257178
 41
-2.953137511001086
 42
-2.769074949513415
1001
DBPROPERTIES
1002
{
1000
PbHidd
1002
}
  0
LINE
  5
1ED
330
1F
100
AcDbEntity
  8
HIDDEN
100
AcDbLine
 10
-139.3525271669654
 20
-39.47001140937329
 30
0.0
 11
-154.687690549967
 21
-23.91645054712659
 31
0.0
1001
DBPROPERTIES
1002
{
1000
PbHidd
1002
}
  0
ELLIPSE
  5
1EE
330
1F
100
AcDbEntity
  8
HIDDEN
100
AcDbEllipse
 10
-171.0180339887499
 20
-7.353536658772064
 30
0.0
 11
12.55875649596287
 21
-55.93752349966087
 31
0.0
210
0.0
220
0.0
230
1.0
 40
0.5590169943749473
 41
-0.3819045866738772
 42
-0.0000002212832867
1001
DBPROPERTIES
1002
{
1000
PbHidd
1002
}
  0
ELLIPSE
  5
1EF
330
1F
100
AcDbEntity
  8
HIDDEN
100
AcDbEllipse
 10
-171.0180339887499
 20
-7.353536658772064
 30
0.0
 11
12.55875649596287
 21
-55.93752349966087
 31
0.0
210
0.0
220
0.0
230
1.0
 40
0.5590169943749473
 41
-0.0000002212832867
 42
0.8398258897221537
1001
DBPROPERTIES
1002
{
1000
PbHidd
1002
}
  0
ELLIPSE
  5
1F0
330
1F
100
AcDbEntity
  8
HIDDEN
100
AcDbEllipse
 10
-171.0180339887499
 20
-54.88734134320384
 30
0.0
 11
1.610096986661906
 21
-7.171477371751392
 31
0.0
210
0.0
220
0.0
230
1.0
 40
0.5590169943749475
 41
-2.738099076866225
 42
-0.3819045866738771
1001
DBPROPERTIES
1002
{
1000
PbHidd
1002
}
  0
ELLIPSE
  5
1F1
330
1F
100
AcDbEntity
  8
HIDDEN
100
AcDbEllipse
 10
-203.7560151504844
 20
0.0000000000000012
 30
0.0
 11
143.2311806097329
 21
-24.57276743215913
 31
0.0
210
0.0
220
0.0
230
1.0
 40
0.112693504132748
 41
-1.201870058416118
 42
-1.185053315326251
1001
DBPROPERTIES
1002
{
1000
PbHidd
1002
}
  0
LINE
  5
1F2
330
1F
100
AcDbEntity
  8
HIDDEN
100
AcDbLine
 10
-152.4313280305645
 20
-24.20059864238667
 30
0.0
 11
-137.7344931782155
 21
-39.1067401453706
 31
0.0
1001
DBPROPERTIES
1002
{
1000
PbHidd
1002
}
  0
LINE
  5
1F3
330
1F
100
AcDbEntity
  8
HIDDEN
100
AcDbLine
 10
-137.7344931782155
 20
-39.10674014537062
 30
0.0
 11
-139.3525271669654
 21
-39.47001140937329
 31
0.0
1001
DBPROPERTIES
1002
{
1000
PbHidd
1002
}
  0
LINE
  5
1F4
330
1F
100
AcDbEntity
  8
HIDDEN
100
AcDbLine
 10
-172.4548579926643
 20
-48.2818973058358
 30
0.0
 11
-170.6803521623545
 21
-24.29641524901232
 31
0.0
1001
DBPROPERTIES
1002
{
1000
PbHidd
1002
}
  0
LINE
  5
1F5
330
1F
100
AcDbEntity
  8
HIDDEN
100
AcDbLine
 10
-172.4548579926643
 20
-48.2818973058358
 30
0.0
 11
-174.0728919814142
 21
-48.64516856983848
 31
0.0
1001
DBPROPERTIES
1002
{
1000
PbHidd
1002
}
  0
LINE
  5
1F6
330
1F
100
AcDbEntity
  8
HIDDEN
100
AcDbLine
 10
-169.4
 20
-61.51433547397055
 30
0.0
 11
-171.0180339887499
 21
-61.87760673797322
 31
0.0
1001
DBPROPERTIES
1002
{
1000
PbHidd
1002
}
  0
ELLIPSE
  5
1F7
330
1F
100
AcDbEntity
  8
HIDDEN
100
AcDbEllipse
 10
-169.4
 20
-54.52407007920116
 30
0.0
 11
-1.610096986661906
 21
7.171477371751392
 31
0.0
210
0.0
220
0.0
230
1.0
 40
0.5590169943749475
 41
0.403493576723568
 42
2.759688066915917
1001
DBPROPERTIES
1002
{
1000
PbHidd
1002
}
  0
ELLIPSE
  5
1F8
330
1F
100
AcDbEntity
  8
HIDDEN
100
AcDbEllipse
 10
-169.4
 20
-6.990265394769382
 30
0.0
 11
-12.55875649596287
 21
55.93752349966087
 31
0.0
210
0.0
220
0.0
230
1.0
 40
0.5590169943749473
 41
3.141592432306506
 42
3.981418543311946
1001
DBPROPERTIES
1002
{
1000
PbHidd
1002
}
  0
ELLIPSE
  5
1F9
330
1F
100
AcDbEntity
  8
HIDDEN
100
AcDbEllipse
 10
-169.4
 20
-6.990265394769382
 30
0.0
 11
-12.55875649596287
 21
55.93752349966087
 31
0.0
210
0.0
220
0.0
230
1.0
 40
0.5590169943749473
 41
2.759688066915917
 42
3.141592432306506
1001
DBPROPERTIES
1002
{
1000
PbHidd
1002
}
  0
ELLIPSE
  5
1FA
330
1F
100
AcDbEntity
  8
HIDDEN
100
AcDbEllipse
 10
-169.4
 20
-0.000000000000003
 30
0.0
 11
-11.38825940507496
 21
28.49936317382637
 31
0.0
210
0.0
220
0.0
230
1.0
 40
0.6340950937257178
 41
-3.101695455257285
 42
-2.785891692603281
1001
DBPROPERTIES
1002
{
1000
PbHidd
1002
}
  0
LINE
  5
1FB
330
1F
100
AcDbEntity
  8
HIDDEN
100
AcDbLine
 10
-172.2434405753571
 20
-14.46567022336112
 30
0.0
 11
-174.0728919814142
 21
-28.19229267177309
 31
0.0
1001
DBPROPERTIES
1002
{
1000
PbHidd
1002
}
  0
ELLIPSE
  5
1FC
330
1F
100
AcDbEntity
  8
HIDDEN
100
AcDbEllipse
 10
-171.8721359549996
 20
-0.0000000000000027
 30
0.0
 11
-19.46375839377806
 21
28.79195050572487
 31
0.0
210
0.0
220
0.0
230
1.0
 40
0.305614684580699
 41
2.746155535206635
 42
2.930218096694306
1001
DBPROPERTIES
1002
{
1000
PbHidd
1002
}
  0
LINE
  5
1FD
330
1F
100
AcDbEntity
  8
HIDDEN
100
AcDbLine
 10
-139.3525271669654
 20
-52.05664009017224
 30
0.0
 11
-154.687690549967
 21
-29.39914170325279
 31
0.0
1001
DBPROPERTIES
1002
{
1000
PbHidd
1002
}
  0
ELLIPSE
  5
1FE
330
1F
100
AcDbEntity
  8
HIDDEN
100
AcDbEllipse
 10
-171.0180339887499
 20
-5.271278120644838
 30
0.0
 11
29.05093718817958
 21
-49.42440640501861
 31
0.0
210
0.0
220
0.0
230
1.0
 40
0.3454915028125262
 41
-1.039406675134543
 42
-0.0000039553441542
1001
DBPROPERTIES
1002
{
1000
PbHidd
1002
}
  0
ELLIPSE
  5
1FF
330
1F
100
AcDbEntity
  8
HIDDEN
100
AcDbEllipse
 10
-171.0180339887499
 20
-5.271278120644838
 30
0.0
 11
29.05093718817958
 21
-49.42440640501861
 31
0.0
210
0.0
220
0.0
230
1.0
 40
0.3454915028125262
 41
-0.0000039553441542
 42
0.182323801261487
1001
DBPROPERTIES
1002
{
1000
PbHidd
1002
}
  0
ELLIPSE
  5
200
330
1F
100
AcDbEntity
  8
HIDDEN
100
AcDbEllipse
 10
-171.0180339887499
 20
-34.64878503022264
 30
0.0
 11
3.72447912668969
 21
-6.336462359617769
 31
0.0
210
0.0
220
0.0
230
1.0
 40
0.3454915028125262
 41
2.887584141852694
 42
3.141592753481678
1001
DBPROPERTIES
1002
{
1000
PbHidd
1002
}
  0
ELLIPSE
  5
201
330
1F
100
AcDbEntity
  8
HIDDEN
100
AcDbEllipse
 10
-171.0180339887499
 20
-34.64878503022264
 30
0.0
 11
3.72447912668969
 21
-6.336462359617769
 31
0.0
210
0.0
220
0.0
230
1.0
 40
0.3454915028125262
 41
-3.141592553697908
 42
-1.039406675134543
1001
DBPROPERTIES
1002
{
1000
PbHidd
1002
}
  0
ELLIPSE
  5
202
330
1F
100
AcDbEntity
  8
HIDDEN
100
AcDbEllipse
 10
-203.7560151504844
 20
0.0000000000000012
 30
0.0
 11
143.2444036567845
 21
-10.23857850223284
 31
0.0
210
0.0
220
0.0
230
1.0
 40
0.1923956436423628
 41
-1.207450508107355
 42
-1.190633765017488
1001
DBPROPERTIES
1002
{
1000
PbHidd
1002
}
  0
LINE
  5
203
330
1F
100
AcDbEntity
  8
HIDDEN
100
AcDbLine
 10
-152.4313280305645
 20
-29.39120703655045
 30
0.0
 11
-137.7344931782154
 21
-51.10558357387708
 31
0.0
1001
DBPROPERTIES
1002
{
1000
PbHidd
1002
}
  0
LINE
  5
204
330
1F
100
AcDbEntity
  8
HIDDEN
100
AcDbLine
 10
-137.7344931782155
 20
-51.1055835738771
 30
0.0
 11
-139.3525271669654
 21
-52.05664009017225
 31
0.0
1001
DBPROPERTIES
1002
{
1000
PbHidd
1002
}
  0
LINE
  5
205
330
1F
100
AcDbEntity
  8
HIDDEN
100
AcDbLine
 10
-172.4548579926643
 20
-27.24123615547793
 30
0.0
 11
-170.6803521623545
 21
-13.9268778267887
 31
0.0
1001
DBPROPERTIES
1002
{
1000
PbHidd
1002
}
  0
LINE
  5
206
330
1F
100
AcDbEntity
  8
HIDDEN
100
AcDbLine
 10
-172.4548579926643
 20
-27.24123615547793
 30
0.0
 11
-174.0728919814142
 21
-28.19229267177309
 31
0.0
1001
DBPROPERTIES
1002
{
1000
PbHidd
1002
}
  0
LINE
  5
207
330
1F
100
AcDbEntity
  8
HIDDEN
100
AcDbLine
 10
-169.4
 20
-38.01795011827716
 30
0.0
 11
-171.0180339887499
 21
-38.96900663457232
 31
0.0
1001
DBPROPERTIES
1002
{
1000
PbHidd
1002
}
  0
ELLIPSE
  5
208
330
1F
100
AcDbEntity
  8
HIDDEN
100
AcDbEllipse
 10
-169.4
 20
-33.69772851392749
 30
0.0
 11
-3.72447912668969
 21
6.336462359617769
 31
0.0
210
0.0
220
0.0
230
1.0
 40
0.3454915028125262
 41
0.0000000998918951
 42
2.10218597845525
1001
DBPROPERTIES
1002
{
1000
PbHidd
1002
}
  0
ELLIPSE
  5
209
330
1F
100
AcDbEntity
  8
HIDDEN
100
AcDbEllipse
 10
-169.4
 20
-33.69772851392749
 30
0.0
 11
-3.72447912668969
 21
6.336462359617769
 31
0.0
210
0.0
220
0.0
230
1.0
 40
0.3454915028125262
 41
-0.2540085117370997
 42
0.0000000998918951
1001
DBPROPERTIES
1002
{
1000
PbHidd
1002
}
  0
ELLIPSE
  5
20A
330
1F
100
AcDbEntity
  8
HIDDEN
100
AcDbEllipse
 10
-169.4
 20
-4.320221604349684
 30
0.0
 11
-29.05093718817958
 21
49.42440640501861
 31
0.0
210
0.0
220
0.0
230
1.0
 40
0.3454915028125262
 41
3.141588698245639
 42
3.32391645485128
1001
DBPROPERTIES
1002
{
1000
PbHidd
1002
}
  0
ELLIPSE
  5
20B
330
1F
100
AcDbEntity
  8
HIDDEN
100
AcDbEllipse
 10
-169.4
 20
-4.320221604349684
 30
0.0
 11
-29.05093718817958
 21
49.42440640501861
 31
0.0
210
0.0
220
0.0
230
1.0
 40
0.3454915028125262
 41
2.10218597845525
 42
3.141588698245639
1001
DBPROPERTIES
1002
{
1000
PbHidd
1002
}
  0
ELLIPSE
  5
20C
330
1F
100
AcDbEntity
  8
HIDDEN
100
AcDbEllipse
 10
-169.4
 20
-0.000000000000003
 30
0.0
 11
-19.46375839377806
 21
28.79195050572487
 31
0.0
210
0.0
220
0.0
230
1.0
 40
0.305614684580699
 41
2.597597590950437
 42
2.913401353604438
1001
DBPROPERTIES
1002
{
1000
PbHidd
1002
}
  0
LINE
  5
20D
330
1F
100
AcDbEntity
  8
HIDDEN
100
AcDbLine
 10
-171.0180339887499
 20
-1.175570504584953
 30
0.0
 11
-139.3525271669654
 21
-44.75940159664583
 31
0.0
1001
DBPROPERTIES
1002
{
1000
PbHidd
1002
}
  0
LINE
  5
20E
330
1F
100
AcDbEntity
  8
HIDDEN
100
AcDbLine
 10
-175.338255593099
 20
4.770704404070146
 30
0.0
 11
-171.0180339887499
 21
-1.175570504584952
 31
0.0
1001
DBPROPERTIES
1002
{
1000
PbHidd
1002
}
  0
ELLIPSE
  5
20F
330
1F
100
AcDbEntity
  8
HIDDEN
100
AcDbEllipse
 10
-203.7560151504844
 20
0.0000000000000012
 30
0.0
 11
143.2479253314141
 21
8.63754132100031
 31
0.0
210
0.0
220
0.0
230
1.0
 40
0.1961811465503412
 41
-1.233030116930054
 42
-1.216213373840187
1001
DBPROPERTIES
1002
{
1000
PbHidd
1002
}
  0
LINE
  5
210
330
1F
100
AcDbEntity
  8
HIDDEN
100
AcDbLine
 10
-137.7344931782155
 20
-43.58383109206087
 30
0.0
 11
-139.3525271669654
 21
-44.75940159664582
 31
0.0
1001
DBPROPERTIES
1002
{
1000
PbHidd
1002
}
  0
LINE
  5
211
330
1F
100
AcDbEntity
  8
HIDDEN
100
AcDbLine
 10
-172.4548579926643
 20
4.204651310709968
 30
0.0
 11
-174.0728919814142
 21
3.029080806125023
 31
0.0
1001
DBPROPERTIES
1002
{
1000
PbHidd
1002
}
  0
LINE
  5
212
330
1F
100
AcDbEntity
  8
HIDDEN
100
AcDbLine
 10
-169.4
 20
-0.0000000000000072
 30
0.0
 11
-171.0180339887499
 21
-1.175570504584952
 31
0.0
1001
DBPROPERTIES
1002
{
1000
PbHidd
1002
}
  0
LINE
  5
213
330
1F
100
AcDbEntity
  8
HIDDEN
100
AcDbLine
 10
-169.4
 20
-0.0000000000000057
 30
0.0
 11
-173.7202216043491
 21
5.946274908655091
 31
0.0
1001
DBPROPERTIES
1002
{
1000
PbHidd
1002
}
  0
LINE
  5
214
330
1F
100
AcDbEntity
  8
HIDDEN
100
AcDbLine
 10
-137.7344931782154
 20
-43.58383109206088
 30
0.0
 11
-169.4
 21
-0.0000000000000072
 31
0.0
1001
DBPROPERTIES
1002
{
1000
PbHidd
1002
}
  0
ELLIPSE
  5
215
330
1F
100
AcDbEntity
  8
HIDDEN
100
AcDbEllipse
 10
-171.8721359549996
 20
-0.0000000000000027
 30
0.0
 11
19.46375839377806
 21
-28.79195050572487
 31
0.0
210
0.0
220
0.0
230
1.0
 40
0.3056146845806992
 41
1.060544888898487
 42
1.244607450386157
1001
DBPROPERTIES
1002
{
1000
PbHidd
1002
}
  0
LINE
  5
216
330
1F
100
AcDbEntity
  8
HIDDEN
100
AcDbLine
 10
-139.3525271669654
 20
-20.36559300930697
 30
0.0
 11
-154.687690549967
 21
-8.871180640430659
 31
0.0
1001
DBPROPERTIES
1002
{
1000
PbHidd
1002
}
  0
ELLIPSE
  5
217
330
1F
100
AcDbEntity
  8
HIDDEN
100
AcDbEllipse
 10
-171.0180339887499
 20
3.369165088054517
 30
0.0
 11
29.05093718817959
 21
-49.42440640501861
 31
0.0
210
0.0
220
0.0
230
1.0
 40
0.3454915028125264
 41
0.8804555020592191
 42
2.102185978455251
1001
DBPROPERTIES
1002
{
1000
PbHidd
1002
}
  0
ELLIPSE
  5
218
330
1F
100
AcDbEntity
  8
HIDDEN
100
AcDbEllipse
 10
-171.0180339887499
 20
32.74667199763232
 30
0.0
 11
3.72447912668969
 21
-6.336462359617771
 31
0.0
210
0.0
220
0.0
230
1.0
 40
0.3454915028125264
 41
3.141530810691687
 42
4.458380468647595
1001
DBPROPERTIES
1002
{
1000
PbHidd
1002
}
  0
ELLIPSE
  5
219
330
1F
100
AcDbEntity
  8
HIDDEN
100
AcDbEllipse
 10
-171.0180339887499
 20
32.74667199763232
 30
0.0
 11
3.72447912668969
 21
-6.336462359617771
 31
0.0
210
0.0
220
0.0
230
1.0
 40
0.3454915028125264
 41
2.10218597845525
 42
3.141530810691687
1001
DBPROPERTIES
1002
{
1000
PbHidd
1002
}
  0
LINE
  5
21A
330
1F
100
AcDbEntity
  8
HIDDEN
100
AcDbLine
 10
-172.2434405753571
 20
15.2925777652606
 30
0.0
 11
-174.0728919814142
 21
33.0934483707533
 31
0.0
1001
DBPROPERTIES
1002
{
1000
PbHidd
1002
}
  0
ELLIPSE
  5
21B
330
1F
100
AcDbEntity
  8
HIDDEN
100
AcDbEllipse
 10
-203.7560151504844
 20
0.0000000000000012
 30
0.0
 11
143.2289213561893
 21
23.65196410247895
 31
0.0
210
0.0
220
0.0
230
1.0
 40
0.1219213458618124
 41
-1.241332007430468
 42
-1.224515264340601
1001
DBPROPERTIES
1002
{
1000
PbHidd
1002
}
  0
LINE
  5
21C
330
1F
100
AcDbEntity
  8
HIDDEN
100
AcDbLine
 10
-152.4313280305645
 20
-8.398580804047516
 30
0.0
 11
-137.7344931782154
 21
-19.41453649301182
 31
0.0
1001
DBPROPERTIES
1002
{
1000
PbHidd
1002
}
  0
LINE
  5
21D
330
1F
100
AcDbEntity
  8
HIDDEN
100
AcDbLine
 10
-137.7344931782155
 20
-19.41453649301182
 30
0.0
 11
-139.3525271669654
 21
-20.36559300930698
 31
0.0
1001
DBPROPERTIES
1002
{
1000
PbHidd
1002
}
  0
LINE
  5
21E
330
1F
100
AcDbEntity
  8
HIDDEN
100
AcDbLine
 10
-172.4548579926643
 20
34.04450488704845
 30
0.0
 11
-170.6803521623545
 21
16.77826399677173
 31
0.0
1001
DBPROPERTIES
1002
{
1000
PbHidd
1002
}
  0
LINE
  5
21F
330
1F
100
AcDbEntity
  8
HIDDEN
100
AcDbLine
 10
-172.4548579926643
 20
34.04450488704845
 30
0.0
 11
-174.0728919814142
 21
33.0934483707533
 31
0.0
1001
DBPROPERTIES
1002
{
1000
PbHidd
1002
}
  0
LINE
  5
220
330
1F
100
AcDbEntity
  8
HIDDEN
100
AcDbLine
 10
-169.4
 20
38.01795011827715
 30
0.0
 11
-171.0180339887499
 21
37.066893601982
 31
0.0
1001
DBPROPERTIES
1002
{
1000
PbHidd
1002
}
  0
ELLIPSE
  5
221
330
1F
100
AcDbEntity
  8
HIDDEN
100
AcDbEllipse
 10
-169.4
 20
33.69772851392747
 30
0.0
 11
-3.72447912668969
 21
6.336462359617771
 31
0.0
210
0.0
220
0.0
230
1.0
 40
0.3454915028125264
 41
-1.039406675134543
 42
-0.0000618428981063
1001
DBPROPERTIES
1002
{
1000
PbHidd
1002
}
  0
ELLIPSE
  5
222
330
1F
100
AcDbEntity
  8
HIDDEN
100
AcDbEllipse
 10
-169.4
 20
33.69772851392747
 30
0.0
 11
-3.72447912668969
 21
6.336462359617771
 31
0.0
210
0.0
220
0.0
230
1.0
 40
0.3454915028125264
 41
-0.0000618428981064
 42
1.316787815057803
1001
DBPROPERTIES
1002
{
1000
PbHidd
1002
}
  0
ELLIPSE
  5
223
330
1F
100
AcDbEntity
  8
HIDDEN
100
AcDbEllipse
 10
-169.4
 20
4.32022160434967
 30
0.0
 11
-29.05093718817959
 21
49.42440640501861
 31
0.0
210
0.0
220
0.0
230
1.0
 40
0.3454915028125264
 41
-2.261137151530574
 42
-1.039406675134543
1001
DBPROPERTIES
1002
{
1000
PbHidd
1002
}
  0
ELLIPSE
  5
224
330
1F
100
AcDbEntity
  8
HIDDEN
100
AcDbEllipse
 10
-169.4
 20
-0.000000000000003
 30
0.0
 11
19.46375839377806
 21
-28.79195050572487
 31
0.0
210
0.0
220
0.0
230
1.0
 40
0.3056146845806992
 41
1.077361631988354
 42
1.367062962078437
1001
DBPROPERTIES
1002
{
1000
PbHidd
1002
}
  0
LINE
  5
225
330
1F
100
AcDbEntity
  8
HIDDEN
100
AcDbLine
 10
-172.2434405753571
 20
24.23285363334505
 30
0.0
 11
-174.0728919814142
 21
50.51724346269366
 31
0.0
1001
DBPROPERTIES
1002
{
1000
PbHidd
1002
}
  0
LINE
  5
226
330
1F
100
AcDbEntity
  8
HIDDEN
100
AcDbLine
 10
-139.3525271669654
 20
11.80717990653986
 30
0.0
 11
-154.687690549967
 21
9.298488172254041
 31
0.0
1001
DBPROPERTIES
1002
{
1000
PbHidd
1002
}
  0
ELLIPSE
  5
227
330
1F
100
AcDbEntity
  8
HIDDEN
100
AcDbEllipse
 10
-171.0180339887499
 20
6.626994130766695
 30
0.0
 11
12.55875649596286
 21
-55.93752349966088
 31
0.0
210
0.0
220
0.0
230
1.0
 40
0.5590169943749476
 41
1.537957590519886
 42
2.759688066915917
1001
DBPROPERTIES
1002
{
1000
PbHidd
1002
}
  0
ELLIPSE
  5
228
330
1F
100
AcDbEntity
  8
HIDDEN
100
AcDbEllipse
 10
-171.0180339887499
 20
54.16079881519848
 30
0.0
 11
1.610096986661905
 21
-7.171477371751394
 31
0.0
210
0.0
220
0.0
230
1.0
 40
0.5590169943749476
 41
3.141592194002671
 42
5.115882557108263
1001
DBPROPERTIES
1002
{
1000
PbHidd
1002
}
  0
ELLIPSE
  5
229
330
1F
100
AcDbEntity
  8
HIDDEN
100
AcDbEllipse
 10
-171.0180339887499
 20
54.16079881519848
 30
0.0
 11
1.610096986661905
 21
-7.171477371751394
 31
0.0
210
0.0
220
0.0
230
1.0
 40
0.5590169943749476
 41
2.759688066915917
 42
3.141592194002671
1001
DBPROPERTIES
1002
{
1000
PbHidd
1002
}
  0
LINE
  5
22A
330
1F
100
AcDbEntity
  8
HIDDEN
100
AcDbLine
 10
-152.4313280305644
 20
9.76618411492574
 30
0.0
 11
-137.7344931782154
 21
12.17045117054254
 31
0.0
1001
DBPROPERTIES
1002
{
1000
PbHidd
1002
}
  0
LINE
  5
22B
330
1F
100
AcDbEntity
  8
HIDDEN
100
AcDbLine
 10
-137.7344931782155
 20
12.17045117054255
 30
0.0
 11
-139.3525271669654
 21
11.80717990653987
 31
0.0
1001
DBPROPERTIES
1002
{
1000
PbHidd
1002
}
  0
LINE
  5
22C
330
1F
100
AcDbEntity
  8
HIDDEN
100
AcDbLine
 10
-172.4548579926643
 20
50.88051472669634
 30
0.0
 11
-170.6803521623545
 21
25.38554785089442
 31
0.0
1001
DBPROPERTIES
1002
{
1000
PbHidd
1002
}
  0
LINE
  5
22D
330
1F
100
AcDbEntity
  8
HIDDEN
100
AcDbLine
 10
-172.4548579926643
 20
50.88051472669634
 30
0.0
 11
-174.0728919814142
 21
50.51724346269366
 31
0.0
1001
DBPROPERTIES
1002
{
1000
PbHidd
1002
}
  0
LINE
  5
22E
330
1F
100
AcDbEntity
  8
HIDDEN
100
AcDbLine
 10
-169.4
 20
61.51433547397053
 30
0.0
 11
-171.0180339887499
 21
61.15106420996786
 31
0.0
1001
DBPROPERTIES
1002
{
1000
PbHidd
1002
}
  0
ELLIPSE
  5
22F
330
1F
100
AcDbEntity
  8
HIDDEN
100
AcDbEllipse
 10
-169.4
 20
54.52407007920116
 30
0.0
 11
-1.610096986661905
 21
7.171477371751394
 31
0.0
210
0.0
220
0.0
230
1.0
 40
0.5590169943749476
 41
-0.3819045866738767
 42
-0.000000459587122
1001
DBPROPERTIES
1002
{
1000
PbHidd
1002
}
  0
ELLIPSE
  5
230
330
1F
100
AcDbEntity
  8
HIDDEN
100
AcDbEllipse
 10
-169.4
 20
54.52407007920116
 30
0.0
 11
-1.610096986661905
 21
7.171477371751394
 31
0.0
210
0.0
220
0.0
230
1.0
 40
0.5590169943749476
 41
-0.0000004595871219
 42
1.97428990351847
1001
DBPROPERTIES
1002
{
1000
PbHidd
1002
}
  0
ELLIPSE
  5
231
330
1F
100
AcDbEntity
  8
HIDDEN
100
AcDbEllipse
 10
-169.4
 20
6.990265394769375
 30
0.0
 11
-12.55875649596286
 21
55.93752349966088
 31
0.0
210
0.0
220
0.0
230
1.0
 40
0.5590169943749476
 41
-1.603635063069908
 42
-0.3819045866738768
1001
DBPROPERTIES
1002
{
1000
PbHidd
1002
}
  0
LINE
  5
232
330
1F
100
AcDbEntity
  8
HIDDEN
100
AcDbLine
 10
-172.2434405753571
 20
23.91700305789309
 30
0.0
 11
-174.0728919814142
 21
48.64516856983846
 31
0.0
1001
DBPROPERTIES
1002
{
1000
PbHidd
1002
}
  0
LINE
  5
233
330
1F
100
AcDbEntity
  8
HIDDEN
100
AcDbLine
 10
-139.3525271669653
 20
39.47001140937326
 30
0.0
 11
-154.6876905499669
 21
23.91645054712658
 31
0.0
1001
DBPROPERTIES
1002
{
1000
PbHidd
1002
}
  0
ELLIPSE
  5
234
330
1F
100
AcDbEntity
  8
HIDDEN
100
AcDbEllipse
 10
-171.0180339887499
 20
7.353536658772057
 30
0.0
 11
-12.55875649596287
 21
-55.93752349966086
 31
0.0
210
0.0
220
0.0
230
1.0
 40
0.5590169943749475
 41
-3.141592432306505
 42
-2.759688066915917
1001
DBPROPERTIES
1002
{
1000
PbHidd
1002
}
  0
ELLIPSE
  5
235
330
1F
100
AcDbEntity
  8
HIDDEN
100
AcDbEllipse
 10
-171.0180339887499
 20
7.353536658772057
 30
0.0
 11
-12.55875649596287
 21
-55.93752349966086
 31
0.0
210
0.0
220
0.0
230
1.0
 40
0.5590169943749475
 41
2.30176676386764
 42
3.141592874873081
1001
DBPROPERTIES
1002
{
1000
PbHidd
1002
}
  0
ELLIPSE
  5
236
330
1F
100
AcDbEntity
  8
HIDDEN
100
AcDbEllipse
 10
-171.0180339887499
 20
54.88734134320383
 30
0.0
 11
-1.610096986661906
 21
-7.171477371751391
 31
0.0
210
0.0
220
0.0
230
1.0
 40
0.5590169943749475
 41
-2.759688066915917
 42
-0.4034935767235677
1001
DBPROPERTIES
1002
{
1000
PbHidd
1002
}
  0
LINE
  5
237
330
1F
100
AcDbEntity
  8
HIDDEN
100
AcDbLine
 10
-152.4313280305645
 20
24.20059864238666
 30
0.0
 11
-137.7344931782154
 21
39.10674014537058
 31
0.0
1001
DBPROPERTIES
1002
{
1000
PbHidd
1002
}
  0
LINE
  5
238
330
1F
100
AcDbEntity
  8
HIDDEN
100
AcDbLine
 10
-137.7344931782155
 20
39.10674014537059
 30
0.0
 11
-139.3525271669654
 21
39.47001140937328
 31
0.0
1001
DBPROPERTIES
1002
{
1000
PbHidd
1002
}
  0
LINE
  5
239
330
1F
100
AcDbEntity
  8
HIDDEN
100
AcDbLine
 10
-172.4548579926643
 20
48.28189730583578
 30
0.0
 11
-170.6803521623545
 21
24.29641524901229
 31
0.0
1001
DBPROPERTIES
1002
{
1000
PbHidd
1002
}
  0
LINE
  5
23A
330
1F
100
AcDbEntity
  8
HIDDEN
100
AcDbLine
 10
-172.4548579926643
 20
48.28189730583578
 30
0.0
 11
-174.0728919814142
 21
48.64516856983847
 31
0.0
1001
DBPROPERTIES
1002
{
1000
PbHidd
1002
}
  0
LINE
  5
23B
330
1F
100
AcDbEntity
  8
HIDDEN
100
AcDbLine
 10
-169.4
 20
61.51433547397053
 30
0.0
 11
-171.0180339887499
 21
61.87760673797322
 31
0.0
1001
DBPROPERTIES
1002
{
1000
PbHidd
1002
}
  0
ELLIPSE
  5
23C
330
1F
100
AcDbEntity
  8
HIDDEN
100
AcDbEllipse
 10
-169.4
 20
54.52407007920115
 30
0.0
 11
1.610096986661906
 21
7.171477371751391
 31
0.0
210
0.0
220
0.0
230
1.0
 40
0.5590169943749475
 41
0.3819045866738773
 42
2.738099076866225
1001
DBPROPERTIES
1002
{
1000
PbHidd
1002
}
  0
ELLIPSE
  5
23D
330
1F
100
AcDbEntity
  8
HIDDEN
100
AcDbEllipse
 10
-169.4
 20
6.990265394769377
 30
0.0
 11
12.55875649596287
 21
55.93752349966086
 31
0.0
210
0.0
220
0.0
230
1.0
 40
0.5590169943749475
 41
-0.8398258897221536
 42
0.0000002212832879
1001
DBPROPERTIES
1002
{
1000
PbHidd
1002
}
  0
ELLIPSE
  5
23E
330
1F
100
AcDbEntity
  8
HIDDEN
100
AcDbEllipse
 10
-169.4
 20
6.990265394769377
 30
0.0
 11
12.55875649596287
 21
55.93752349966086
 31
0.0
210
0.0
220
0.0
230
1.0
 40
0.5590169943749475
 41
0.0000002212832879
 42
0.3819045866738773
1001
DBPROPERTIES
1002
{
1000
PbHidd
1002
}
  0
LINE
  5
23F
330
1F
100
AcDbEntity
  8
HIDDEN
100
AcDbLine
 10
-172.2434405753571
 20
14.46567022336113
 30
0.0
 11
-174.0728919814142
 21
28.1922926717731
 31
0.0
1001
DBPROPERTIES
1002
{
1000
PbHidd
1002
}
  0
LINE
  5
240
330
1F
100
AcDbEntity
  8
HIDDEN
100
AcDbLine
 10
-139.3525271669654
 20
52.05664009017227
 30
0.0
 11
-154.6876905499669
 21
29.39914170325281
 31
0.0
1001
DBPROPERTIES
1002
{
1000
PbHidd
1002
}
  0
ELLIPSE
  5
241
330
1F
100
AcDbEntity
  8
HIDDEN
100
AcDbEllipse
 10
-171.0180339887499
 20
5.271278120644834
 30
0.0
 11
-29.0509371881796
 21
-49.4244064050186
 31
0.0
210
0.0
220
0.0
230
1.0
 40
0.3454915028125264
 41
-3.141588698245638
 42
-2.10218597845525
1001
DBPROPERTIES
1002
{
1000
PbHidd
1002
}
  0
ELLIPSE
  5
242
330
1F
100
AcDbEntity
  8
HIDDEN
100
AcDbEllipse
 10
-171.0180339887499
 20
5.271278120644834
 30
0.0
 11
-29.0509371881796
 21
-49.4244064050186
 31
0.0
210
0.0
220
0.0
230
1.0
 40
0.3454915028125264
 41
2.959268852328305
 42
3.141596608933948
1001
DBPROPERTIES
1002
{
1000
PbHidd
1002
}
  0
ELLIPSE
  5
243
330
1F
100
AcDbEntity
  8
HIDDEN
100
AcDbEllipse
 10
-171.0180339887499
 20
34.64878503022264
 30
0.0
 11
-3.724479126689692
 21
-6.336462359617768
 31
0.0
210
0.0
220
0.0
230
1.0
 40
0.3454915028125264
 41
-0.0000000998918942
 42
0.2540085117371006
1001
DBPROPERTIES
1002
{
1000
PbHidd
1002
}
  0
ELLIPSE
  5
244
330
1F
100
AcDbEntity
  8
HIDDEN
100
AcDbEllipse
 10
-171.0180339887499
 20
34.64878503022264
 30
0.0
 11
-3.724479126689692
 21
-6.336462359617768
 31
0.0
210
0.0
220
0.0
230
1.0
 40
0.3454915028125264
 41
-2.10218597845525
 42
-0.0000000998918943
1001
DBPROPERTIES
1002
{
1000
PbHidd
1002
}
  0
LINE
  5
245
330
1F
100
AcDbEntity
  8
HIDDEN
100
AcDbLine
 10
-152.4313280305644
 20
29.39120703655047
 30
0.0
 11
-137.7344931782154
 21
51.10558357387711
 31
0.0
1001
DBPROPERTIES
1002
{
1000
PbHidd
1002
}
  0
LINE
  5
246
330
1F
100
AcDbEntity
  8
HIDDEN
100
AcDbLine
 10
-137.7344931782155
 20
51.10558357387709
 30
0.0
 11
-139.3525271669654
 21
52.05664009017224
 31
0.0
1001
DBPROPERTIES
1002
{
1000
PbHidd
1002
}
  0
LINE
  5
247
330
1F
100
AcDbEntity
  8
HIDDEN
100
AcDbLine
 10
-172.4548579926643
 20
27.24123615547795
 30
0.0
 11
-170.6803521623545
 21
13.92687782678871
 31
0.0
1001
DBPROPERTIES
1002
{
1000
PbHidd
1002
}
  0
LINE
  5
248
330
1F
100
AcDbEntity
  8
HIDDEN
100
AcDbLine
 10
-172.4548579926643
 20
27.24123615547795
 30
0.0
 11
-174.0728919814142
 21
28.1922926717731
 31
0.0
1001
DBPROPERTIES
1002
{
1000
PbHidd
1002
}
  0
LINE
  5
249
330
1F
100
AcDbEntity
  8
HIDDEN
100
AcDbLine
 10
-169.4
 20
38.01795011827716
 30
0.0
 11
-171.0180339887499
 21
38.96900663457232
 31
0.0
1001
DBPROPERTIES
1002
{
1000
PbHidd
1002
}
  0
ELLIPSE
  5
24A
330
1F
100
AcDbEntity
  8
HIDDEN
100
AcDbEllipse
 10
-169.4
 20
33.69772851392749
 30
0.0
 11
3.724479126689692
 21
6.336462359617768
 31
0.0
210
0.0
220
0.0
230
1.0
 40
0.3454915028125264
 41
1.039406675134543
 42
3.141592553697899
1001
DBPROPERTIES
1002
{
1000
PbHidd
1002
}
  0
ELLIPSE
  5
24B
330
1F
100
AcDbEntity
  8
HIDDEN
100
AcDbEllipse
 10
-169.4
 20
33.69772851392749
 30
0.0
 11
3.724479126689692
 21
6.336462359617768
 31
0.0
210
0.0
220
0.0
230
1.0
 40
0.3454915028125264
 41
3.141592553697899
 42
3.395601165326894
1001
DBPROPERTIES
1002
{
1000
PbHidd
1002
}
  0
ELLIPSE
  5
24C
330
1F
100
AcDbEntity
  8
HIDDEN
100
AcDbEllipse
 10
-169.4
 20
4.320221604349681
 30
0.0
 11
29.0509371881796
 21
49.4244064050186
 31
0.0
210
0.0
220
0.0
230
1.0
 40
0.3454915028125264
 41
-0.1823238012614876
 42
0.0000039553441549
1001
DBPROPERTIES
1002
{
1000
PbHidd
1002
}
  0
ELLIPSE
  5
24D
330
1F
100
AcDbEntity
  8
HIDDEN
100
AcDbEllipse
 10
-169.4
 20
4.320221604349681
 30
0.0
 11
29.0509371881796
 21
49.4244064050186
 31
0.0
210
0.0
220
0.0
230
1.0
 40
0.3454915028125264
 41
0.0000039553441549
 42
1.039406675134543
1001
DBPROPERTIES
1002
{
1000
PbHidd
1002
}
  0
LINE
  5
24E
330
1F
100
AcDbEntity
  8
HIDDEN
100
AcDbLine
 10
-172.2434405753571
 20
-0.5110569664475006
 30
0.0
 11
-174.0728919814142
 21
-3.029080806125021
 31
0.0
1001
DBPROPERTIES
1002
{
1000
PbHidd
1002
}
  0
LINE
  5
24F
330
1F
100
AcDbEntity
  8
HIDDEN
100
AcDbLine
 10
-139.3525271669654
 20
44.75940159664581
 30
0.0
 11
-154.6876905499669
 21
23.65235996881092
 31
0.0
1001
DBPROPERTIES
1002
{
1000
PbHidd
1002
}
  0
LINE
  5
250
330
1F
100
AcDbEntity
  8
HIDDEN
100
AcDbLine
 10
-175.3382555930996
 20
-4.770704404070909
 30
0.0
 11
-174.0728919814142
 21
-3.029080806125021
 31
0.0
1001
DBPROPERTIES
1002
{
1000
PbHidd
1002
}
  0
LINE
  5
251
330
1F
100
AcDbEntity
  8
HIDDEN
100
AcDbLine
 10
-152.4313280305644
 20
23.35537331313705
 30
0.0
 11
-137.7344931782154
 21
43.58383109206086
 31
0.0
1001
DBPROPERTIES
1002
{
1000
PbHidd
1002
}
  0
LINE
  5
252
330
1F
100
AcDbEntity
  8
HIDDEN
100
AcDbLine
 10
-137.7344931782155
 20
43.58383109206085
 30
0.0
 11
-139.3525271669654
 21
44.7594015966458
 31
0.0
1001
DBPROPERTIES
1002
{
1000
PbHidd
1002
}
  0
LINE
  5
253
330
1F
100
AcDbEntity
  8
HIDDEN
100
AcDbLine
 10
-172.4548579926643
 20
-4.204651310709967
 30
0.0
 11
-170.6803521623545
 21
-1.7622535681009
 31
0.0
1001
DBPROPERTIES
1002
{
1000
PbHidd
1002
}
  0
LINE
  5
254
330
1F
100
AcDbEntity
  8
HIDDEN
100
AcDbLine
 10
-172.4548579926643
 20
-4.204651310709967
 30
0.0
 11
-174.0728919814142
 21
-3.029080806125021
 31
0.0
1001
DBPROPERTIES
1002
{
1000
PbHidd
1002
}
  0
LINE
  5
255
330
1F
100
AcDbEntity
  8
HIDDEN
100
AcDbLine
 10
-169.4
 20
0.0000000000000092
 30
0.0
 11
-171.0180339887499
 21
1.175570504584955
 31
0.0
1001
DBPROPERTIES
1002
{
1000
PbHidd
1002
}
  0
LINE
  5
256
330
1F
100
AcDbEntity
  8
HIDDEN
100
AcDbLine
 10
-172.4548579926642
 20
-4.204651310709967
 30
0.0
 11
-173.7202216043497
 21
-5.946274908655855
 31
0.0
1001
DBPROPERTIES
1002
{
1000
PbHidd
1002
}
  0
ARC
  5
257
330
1F
100
AcDbEntity
  8
THICK
100
AcDbCircle
 10
-173.92
 20
-69.6
 30
0.0
 40
10.0
100
AcDbArc
 50
202.9545028900423
 51
245.0000366574661
1001
DBPROPERTIES
1002
{
1000
PbThick
1002
}
  0
ARC
  5
258
330
1F
100
AcDbEntity
  8
THICK
100
AcDbCircle
 10
0.0
 20
403.834455109902
 30
0.0
 40
514.334455109902
100
AcDbArc
 50
249.7350171722067
 51
290.2649629799504
1001
DBPROPERTIES
1002
{
1000
PbThick
1002
}
  0
ARC
  5
259
330
1F
100
AcDbEntity
  8
THICK
100
AcDbCircle
 10
173.92
 20
-69.60000000000001
 30
0.0
 40
10.0
100
AcDbArc
 50
295.0000007904706
 51
337.0454772621148
1001
DBPROPERTIES
1002
{
1000
PbThick
1002
}
  0
LINE
  5
25A
330
1F
100
AcDbEntity
  8
HIDDEN
100
AcDbLine
 10
127.7
 20
-134.0
 30
0.0
 11
127.7
 21
-119.5
 31
0.0
1001
DBPROPERTIES
1002
{
1000
PbHidd
1002
}
  0
LINE
  5
25B
330
1F
100
AcDbEntity
  8
HIDDEN
100
AcDbLine
 10
127.7
 20
-134.0
 30
0.0
 11
127.7
 21
-119.5
 31
0.0
1001
DBPROPERTIES
1002
{
1000
PbHidd
1002
}
  0
LINE
  5
25C
330
1F
100
AcDbEntity
  8
HIDDEN
100
AcDbLine
 10
-122.3
 20
-134.0
 30
0.0
 11
-122.3
 21
-119.5
 31
0.0
1001
DBPROPERTIES
1002
{
1000
PbHidd
1002
}
  0
LINE
  5
25D
330
1F
100
AcDbEntity
  8
HIDDEN
100
AcDbLine
 10
-122.3
 20
-134.0
 30
0.0
 11
-122.3
 21
-119.5
 31
0.0
1001
DBPROPERTIES
1002
{
1000
PbHidd
1002
}
  0
ARC
  5
25E
330
1F
100
AcDbEntity
  8
THICK
100
AcDbCircle
 10
237.16
 20
-73.5
 30
0.0
 40
2.0
100
AcDbArc
 50
180.0000198478428
 51
0.0
1001
DBPROPERTIES
1002
{
1000
PbThick
1002
}
  0
ARC
  5
25F
330
1F
100
AcDbEntity
  8
THICK
100
AcDbCircle
 10
-237.16
 20
-73.5
 30
0.0
 40
2.0
100
AcDbArc
 50
180.0000198478428
 51
0.0
1001
DBPROPERTIES
1002
{
1000
PbThick
1002
}
  0
ARC
  5
260
330
1F
100
AcDbEntity
  8
HIDDEN
100
AcDbCircle
 10
0.0
 20
356.9441863235991
 30
0.0
 40
459.4441863235991
100
AcDbArc
 50
248.8322648701986
 51
291.167772577738
1001
DBPROPERTIES
1002
{
1000
PbHidd
1002
}
  0
ARC
  5
261
330
1F
100
AcDbEntity
  8
HIDDEN
100
AcDbCircle
 10
0.0
 20
-356.9441863235991
 30
0.0
 40
459.4441863235991
100
AcDbArc
 50
68.83222742226194
 51
111.1677351298014
1001
DBPROPERTIES
1002
{
1000
PbHidd
1002
}
  0
ARC
  5
262
330
1F
100
AcDbEntity
  8
THICK
100
AcDbCircle
 10
-237.16
 20
73.5
 30
0.0
 40
2.0
100
AcDbArc
 50
0.0
 51
180.0000198478428
1001
DBPROPERTIES
1002
{
1000
PbThick
1002
}
  0
ARC
  5
263
330
1F
100
AcDbEntity
  8
THICK
100
AcDbCircle
 10
237.16
 20
73.5
 30
0.0
 40
2.0
100
AcDbArc
 50
0.0
 51
180.0000198478428
1001
DBPROPERTIES
1002
{
1000
PbThick
1002
}
  0
LINE
  5
264
330
1F
100
AcDbEntity
  8
HIDDEN
100
AcDbLine
 10
-127.6999969482422
 20
-134.0
 30
0.0
 11
-127.6999969482422
 21
-119.5
 31
0.0
1001
DBPROPERTIES
1002
{
1000
PbHidd
1002
}
  0
LINE
  5
265
330
1F
100
AcDbEntity
  8
HIDDEN
100
AcDbLine
 10
-127.6999969482422
 20
-134.0
 30
0.0
 11
-127.6999969482422
 21
-119.5
 31
0.0
1001
DBPROPERTIES
1002
{
1000
PbHidd
1002
}
  0
LINE
  5
266
330
1F
100
AcDbEntity
  8
HIDDEN
100
AcDbLine
 10
122.3000030517578
 20
-134.0
 30
0.0
 11
122.3000030517578
 21
-119.5
 31
0.0
1001
DBPROPERTIES
1002
{
1000
PbHidd
1002
}
  0
LINE
  5
267
330
1F
100
AcDbEntity
  8
HIDDEN
100
AcDbLine
 10
122.3000030517578
 20
-134.0
 30
0.0
 11
122.3000030517578
 21
-119.5
 31
0.0
1001
DBPROPERTIES
1002
{
1000
PbHidd
1002
}
  0
ARC
  5
268
330
1F
100
AcDbEntity
  8
THICK
100
AcDbCircle
 10
173.92
 20
69.60000000000001
 30
0.0
 40
10.0
100
AcDbArc
 50
22.9545227378852
 51
64.99999920952942
1001
DBPROPERTIES
1002
{
1000
PbThick
1002
}
  0
ARC
  5
269
330
1F
100
AcDbEntity
  8
THICK
100
AcDbCircle
 10
0.0
 20
-403.834455109902
 30
0.0
 40
514.334455109902
100
AcDbArc
 50
69.73503702004957
 51
110.2649828277932
1001
DBPROPERTIES
1002
{
1000
PbThick
1002
}
  0
ARC
  5
26A
330
1F
100
AcDbEntity
  8
THICK
100
AcDbCircle
 10
-173.92
 20
69.6
 30
0.0
 40
10.0
100
AcDbArc
 50
114.9999633425339
 51
157.0454971099576
1001
DBPROPERTIES
1002
{
1000
PbThick
1002
}
  0
LINE
  5
26B
330
1F
100
AcDbEntity
  8
HIDDEN
100
AcDbLine
 10
-96.80000305175781
 20
29.39999999999999
 30
0.0
 11
-157.3000030517578
 21
29.4
 31
0.0
1001
DBPROPERTIES
1002
{
1000
PbHidd
1002
}
  0
ARC
  5
26C
330
1F
100
AcDbEntity
  8
HIDDEN
100
AcDbCircle
 10
-157.3
 20
-0.0000000000000044
 30
0.0
 40
29.4
100
AcDbArc
 50
258.9787171683909
 51
270.0000187239684
1001
DBPROPERTIES
1002
{
1000
PbHidd
1002
}
  0
LINE
  5
26D
330
1F
100
AcDbEntity
  8
HIDDEN
100
AcDbLine
 10
-174.7425083667868
 20
-39.08313714843815
 30
0.0
 11
-173.124478825918
 21
-40.03419105033439
 31
0.0
1001
DBPROPERTIES
1002
{
1000
PbHidd
1002
}
  0
LINE
  5
26E
330
1F
100
AcDbEntity
  8
HIDDEN
100
AcDbLine
 10
-172.6281302118379
 20
-61.33227635838291
 30
0.0
 11
-171.0101004563205
 21
-61.69554667196567
 31
0.0
1001
DBPROPERTIES
1002
{
1000
PbHidd
1002
}
  0
LINE
  5
26F
330
1F
100
AcDbEntity
  8
HIDDEN
100
AcDbLine
 10
-158.459280823514
 20
-63.29106090622768
 30
0.0
 11
-156.8412417493711
 21
-62.92778850048312
 31
0.0
1001
DBPROPERTIES
1002
{
1000
PbHidd
1002
}
  0
LINE
  5
270
330
1F
100
AcDbEntity
  8
HIDDEN
100
AcDbLine
 10
-174.7425079345703
 20
-28.31232261657715
 30
0.0
 11
-173.1244812011719
 21
-27.36126708984375
 31
0.0
1001
DBPROPERTIES
1002
{
1000
PbHidd
1002
}
  0
LINE
  5
271
330
1F
100
AcDbEntity
  8
HIDDEN
100
AcDbLine
 10
-141.9670961056776
 20
-54.69568411721578
 30
0.0
 11
-140.3490664315288
 21
-53.7446301369795
 31
0.0
1001
DBPROPERTIES
1002
{
1000
PbHidd
1002
}
  0
LINE
  5
272
330
1F
100
AcDbEntity
  8
HIDDEN
100
AcDbLine
 10
-175.3382568359375
 20
4.77070426940918
 30
0.0
 11
-173.72021484375
 21
5.946274757385254
 31
0.0
1001
DBPROPERTIES
1002
{
1000
PbHidd
1002
}
  0
LINE
  5
273
330
1F
100
AcDbEntity
  8
HIDDEN
100
AcDbLine
 10
-174.7423706054688
 20
39.08321380615234
 30
0.0
 11
-173.1243438720703
 21
40.03427124023438
 31
0.0
1001
DBPROPERTIES
1002
{
1000
PbHidd
1002
}
  0
LINE
  5
274
330
1F
100
AcDbEntity
  8
HIDDEN
100
AcDbLine
 10
-172.6281280517578
 20
61.332275390625
 30
0.0
 11
-171.0101013183594
 21
61.69554901123047
 31
0.0
1001
DBPROPERTIES
1002
{
1000
PbHidd
1002
}
  0
LINE
  5
275
330
1F
100
AcDbEntity
  8
HIDDEN
100
AcDbLine
 10
-158.4592895507812
 20
63.29106140136719
 30
0.0
 11
-156.8412475585938
 21
62.92779159545898
 31
0.0
1001
DBPROPERTIES
1002
{
1000
PbHidd
1002
}
  0
LINE
  5
276
330
1F
100
AcDbEntity
  8
HIDDEN
100
AcDbLine
 10
-174.7425099279405
 20
28.31232079703996
 30
0.0
 11
-173.1244811208487
 21
27.36126732644697
 31
0.0
1001
DBPROPERTIES
1002
{
1000
PbHidd
1002
}
  0
LINE
  5
277
330
1F
100
AcDbEntity
  8
HIDDEN
100
AcDbLine
 10
-141.9671630859375
 20
54.69572448730469
 30
0.0
 11
-140.3491363525391
 21
53.74466705322266
 31
0.0
1001
DBPROPERTIES
1002
{
1000
PbHidd
1002
}
  0
LINE
  5
278
330
1F
100
AcDbEntity
  8
HIDDEN
100
AcDbLine
 10
-175.338256470583
 20
-4.770703766541862
 30
0.0
 11
-173.7202172514132
 21
-5.946278071249328
 31
0.0
1001
DBPROPERTIES
1002
{
1000
PbHidd
1002
}
  0
LINE
  5
279
330
1F
100
AcDbEntity
  8
HIDDEN
100
AcDbLine
 10
-96.80000305175781
 20
-29.39999961853027
 30
0.0
 11
-157.3000030517578
 21
-29.39999961853027
 31
0.0
1001
DBPROPERTIES
1002
{
1000
PbHidd
1002
}
  0
ENDSEC
  0
SECTION
  2
OBJECTS
  0
DICTIONARY
  5
C
330
0
100
AcDbDictionary
  3
ACAD_GROUP
350
D
  3
ACAD_LAYOUT
350
1A
  3
ACAD_MATERIAL
350
43
  3
ACAD_MLEADERSTYLE
350
6B
  3
ACAD_MLINESTYLE
350
17
  3
ACAD_PLOTSETTINGS
350
19
  3
ACAD_SCALELIST
350
47
  3
ACAD_VISUALSTYLE
350
2A
  3
ACDBVARIABLEDICTIONARY
350
27A
1001
ACAD
1000
TREAT_AS_HARD
1070
     0
  0
DICTIONARY
  5
D
102
{ACAD_REACTORS
330
C
102
}
330
C
100
AcDbDictionary
1001
ACAD
1000
TREAT_AS_HARD
1070
     0
  0
DICTIONARY
  5
1A
102
{ACAD_REACTORS
330
C
102
}
330
C
100
AcDbDictionary
1001
ACAD
1000
TREAT_AS_HARD
1070
     0
  0
DICTIONARY
  5
43
102
{ACAD_REACTORS
330
C
102
}
330
C
100
AcDbDictionary
  3
BYBLOCK
350
45
  3
BYLAYER
350
44
  3
GLOBAL
350
46
1001
ACAD
1000
TREAT_AS_HARD
1070
     0
  0
DICTIONARY
  5
6B
102
{ACAD_REACTORS
330
C
102
}
330
C
100
AcDbDictionary
  3
STANDARD
350
6C
1001
ACAD
1000
TREAT_AS_HARD
1070
     0
  0
DICTIONARY
  5
17
102
{ACAD_REACTORS
330
C
102
}
330
C
100
AcDbDictionary
  3
STANDARD
350
18
1001
ACAD
1000
TREAT_AS_HARD
1070
     0
  0
DICTIONARY
  5
19
102
{ACAD_REACTORS
330
C
102
}
330
C
100
AcDbDictionary
1001
ACAD
1000
TREAT_AS_HARD
1070
     0
  0
DICTIONARY
  5
47
102
{ACAD_REACTORS
330
C
102
}
330
C
100
AcDbDictionary
  3
A0
350
48
  3
A1
350
49
  3
A2
350
4A
  3
A3
350
4B
  3
A4
350
4C
  3
A5
350
4D
  3
A6
350
4E
  3
A7
350
4F
  3
A8
350
50
  3
A9
350
51
  3
B0
350
52
  3
B1
350
53
  3
B2
350
54
  3
B3
350
55
  3
B4
350
56
  3
B5
350
57
  3
B6
350
58
  3
B7
350
59
  3
B8
350
5A
  3
B9
350
5B
  3
C0
350
5C
  3
C1
350
5D
  3
C2
350
5E
  3
C3
350
5F
  3
C4
350
60
  3
C5
350
61
  3
C6
350
62
  3
C7
350
63
  3
C8
350
64
  3
C9
350
65
  3
D0
350
66
  3
D1
350
67
  3
D2
350
68
1001
ACAD
1000
TREAT_AS_HARD
1070
     0
  0
DICTIONARY
  5
2A
102
{ACAD_REACTORS
330
C
102
}
330
C
100
AcDbDictionary
  3
2DWIREFRAME
350
2F
  3
BASIC
350
32
  3
BRIGHTEN
350
36
  3
COLORCHANGE
350
3A
  3
CONCEPTUAL
350
34
  3
DIM
350
35
  3
EDGECOLOROFF
350
3D
  3
FACEPATTERN
350
39
  3
FLAT
350
2B
  3
FLATWITHEDGES
350
2C
  3
GOURAUD
350
2D
  3
GOURAUDWITHEDGES
350
2E
  3
HIDDEN
350
31
  3
JITTEROFF
350
3B
  3
LINEPATTERN
350
38
  3
OVERHANGOFF
350
3C
  3
REALISTIC
350
33
  3
SHADED
350
42
  3
SHADED_WITH_EDGES
350
41
  3
SHADES_OF_GRAY
350
3E
  3
SKETCHY
350
3F
  3
THICKEN
350
37
  3
WIREFRAME
350
30
  3
X-RAY
350
40
1001
ACAD
1000
TREAT_AS_HARD
1070
     0
  0
DICTIONARY
  5
27A
102
{ACAD_REACTORS
330
C
102
}
330
C
100
AcDbDictionary
  3
CANNOSCALE
350
285
  3
CENTEREXE
350
281
  3
CENTERLTYPEFILE
350
282
  3
CMLEADERSTYLE
350
27C
  3
CTABLESTYLE
350
27B
  3
DIMASSOC
350
283
  3
HIDETEXT
350
284
  3
MSLTSCALE
350
286
  3
PSOLHEIGHT
350
27E
  3
PSOLWIDTH
350
27D
1001
ACAD
1000
TREAT_AS_HARD
1070
     0
  0
MATERIAL
  5
45
102
{ACAD_REACTORS
330
43
102
}
102
{ACAD_XDICTIONARY
360
289
102
}
330
43
100
AcDbMaterial
  1
BYBLOCK
  0
MATERIAL
  5
44
102
{ACAD_REACTORS
330
43
102
}
102
{ACAD_XDICTIONARY
360
287
102
}
330
43
100
AcDbMaterial
  1
BYLAYER
  0
MATERIAL
  5
46
102
{ACAD_REACTORS
330
43
102
}
102
{ACAD_XDICTIONARY
360
28B
102
}
330
43
100
AcDbMaterial
  1
GLOBAL
  0
ACAD_PROXY_OBJECT
  5
6C
102
{ACAD_REACTORS
330
6B
102
}
330
6B
100
AcDbZombieObject
 90
      499
 91
      505
 93
      610
310
40901902A4063FBFFFFFE0000000000000020400000000000020404214DD185B99185C990000000000000104090141901A00000000000004100000000000000041025764000000000000039000
340
14
340
0
340
11
340
0
 94
        0
1001
ACAD_MLEADERVER
1070
     2
  0
MLINESTYLE
  5
18
102
{ACAD_REACTORS
330
17
102
}
330
17
100
AcDbMlineStyle
  2
Standard
 70
     0
  3

 62
   256
 51
90.0
 52
90.0
 71
     2
 49
0.5
 62
   256
  6
BYLAYER
 49
-0.5
 62
   256
  6
BYLAYER
  0
ACAD_PROXY_OBJECT
  5
48
102
{ACAD_REACTORS
330
47
102
}
330
47
100
AcDbZombieObject
 90
      499
 91
      503
 93
       41
310
903313A31580
  0
ACAD_PROXY_OBJECT
  5
49
102
{ACAD_REACTORS
330
47
102
}
330
47
100
AcDbZombieObject
 90
      499
 91
      503
 93
      105
310
903313A324000000000000004000
  0
ACAD_PROXY_OBJECT
  5
4A
102
{ACAD_REACTORS
330
47
102
}
330
47
100
AcDbZombieObject
 90
      499
 91
      503
 93
      105
310
903313A344000000000000104000
  0
ACAD_PROXY_OBJECT
  5
4B
102
{ACAD_REACTORS
330
47
102
}
330
47
100
AcDbZombieObject
 90
      499
 91
      503
 93
      105
310
903313A354000000000000144000
  0
ACAD_PROXY_OBJECT
  5
4C
102
{ACAD_REACTORS
330
47
102
}
330
47
100
AcDbZombieObject
 90
      499
 91
      503
 93
      105
310
903313A384000000000000204000
  0
ACAD_PROXY_OBJECT
  5
4D
102
{ACAD_REACTORS
330
47
102
}
330
47
100
AcDbZombieObject
 90
      499
 91
      503
 93
      113
310
904313A31304000000000000244000
  0
ACAD_PROXY_OBJECT
  5
4E
102
{ACAD_REACTORS
330
47
102
}
330
47
100
AcDbZombieObject
 90
      499
 91
      503
 93
      113
310
904313A31364000000000000304000
  0
ACAD_PROXY_OBJECT
  5
4F
102
{ACAD_REACTORS
330
47
102
}
330
47
100
AcDbZombieObject
 90
      499
 91
      503
 93
      113
310
904313A32304000000000000344000
  0
ACAD_PROXY_OBJECT
  5
50
102
{ACAD_REACTORS
330
47
102
}
330
47
100
AcDbZombieObject
 90
      499
 91
      503
 93
      113
310
904313A333040000000000003E4000
  0
ACAD_PROXY_OBJECT
  5
51
102
{ACAD_REACTORS
330
47
102
}
330
47
100
AcDbZombieObject
 90
      499
 91
      503
 93
      113
310
904313A34304000000000000444000
  0
ACAD_PROXY_OBJECT
  5
52
102
{ACAD_REACTORS
330
47
102
}
330
47
100
AcDbZombieObject
 90
      499
 91
      503
 93
      113
310
904313A35304000000000000494000
  0
ACAD_PROXY_OBJECT
  5
53
102
{ACAD_REACTORS
330
47
102
}
330
47
100
AcDbZombieObject
 90
      499
 91
      503
 93
      121
310
905313A3130304000000000000594000
  0
ACAD_PROXY_OBJECT
  5
54
102
{ACAD_REACTORS
330
47
102
}
330
47
100
AcDbZombieObject
 90
      499
 91
      503
 93
      105
310
903323A310000000000000010100
  0
ACAD_PROXY_OBJECT
  5
55
102
{ACAD_REACTORS
330
47
102
}
330
47
100
AcDbZombieObject
 90
      499
 91
      503
 93
      105
310
903343A310000000000000410100
  0
ACAD_PROXY_OBJECT
  5
56
102
{ACAD_REACTORS
330
47
102
}
330
47
100
AcDbZombieObject
 90
      499
 91
      503
 93
      105
310
903383A310000000000000810100
  0
ACAD_PROXY_OBJECT
  5
57
102
{ACAD_REACTORS
330
47
102
}
330
47
100
AcDbZombieObject
 90
      499
 91
      503
 93
      113
310
90431303A310000000000000910100
  0
ACAD_PROXY_OBJECT
  5
58
102
{ACAD_REACTORS
330
47
102
}
330
47
100
AcDbZombieObject
 90
      499
 91
      503
 93
      121
310
9053130303A310000000000001650100
  0
ACAD_PROXY_OBJECT
  5
59
102
{ACAD_REACTORS
330
47
102
}
330
47
100
AcDbZombieObject
 90
      499
 91
      503
 93
      257
310
90E312F31323822203D2031272D3022000000000000200FC000000000000284000
  0
ACAD_PROXY_OBJECT
  5
5A
102
{ACAD_REACTORS
330
47
102
}
330
47
100
AcDbZombieObject
 90
      499
 91
      503
 93
      249
310
90D312F363422203D2031272D3022000000000000240FC000000000000284000
  0
ACAD_PROXY_OBJECT
  5
5B
102
{ACAD_REACTORS
330
47
102
}
330
47
100
AcDbZombieObject
 90
      499
 91
      503
 93
      249
310
90D312F333222203D2031272D3022000000000000280FC000000000000284000
  0
ACAD_PROXY_OBJECT
  5
5C
102
{ACAD_REACTORS
330
47
102
}
330
47
100
AcDbZombieObject
 90
      499
 91
      503
 93
      249
310
90D312F313622203D2031272D30220000000000002C0FC000000000000284000
  0
ACAD_PROXY_OBJECT
  5
5D
102
{ACAD_REACTORS
330
47
102
}
330
47
100
AcDbZombieObject
 90
      499
 91
      503
 93
      249
310
90D332F333222203D2031272D30220000000000002E0FC000000000000284000
  0
ACAD_PROXY_OBJECT
  5
5E
102
{ACAD_REACTORS
330
47
102
}
330
47
100
AcDbZombieObject
 90
      499
 91
      503
 93
      241
310
90C312F3822203D2031272D3022000000000000300FC000000000000284000
  0
ACAD_PROXY_OBJECT
  5
5F
102
{ACAD_REACTORS
330
47
102
}
330
47
100
AcDbZombieObject
 90
      499
 91
      503
 93
      249
310
90D332F313622203D2031272D3022000000000000320FC000000000000284000
  0
ACAD_PROXY_OBJECT
  5
60
102
{ACAD_REACTORS
330
47
102
}
330
47
100
AcDbZombieObject
 90
      499
 91
      503
 93
      241
310
90C312F3422203D2031272D3022000000000000340FC000000000000284000
  0
ACAD_PROXY_OBJECT
  5
61
102
{ACAD_REACTORS
330
47
102
}
330
47
100
AcDbZombieObject
 90
      499
 91
      503
 93
      241
310
90C332F3822203D2031272D3022000000000000360FC000000000000284000
  0
ACAD_PROXY_OBJECT
  5
62
102
{ACAD_REACTORS
330
47
102
}
330
47
100
AcDbZombieObject
 90
      499
 91
      503
 93
      241
310
90C312F3222203D2031272D3022000000000000380FC000000000000284000
  0
ACAD_PROXY_OBJECT
  5
63
102
{ACAD_REACTORS
330
47
102
}
330
47
100
AcDbZombieObject
 90
      499
 91
      503
 93
      241
310
90C332F3422203D2031272D30220000000000003A0FC000000000000284000
  0
ACAD_PROXY_OBJECT
  5
64
102
{ACAD_REACTORS
330
47
102
}
330
47
100
AcDbZombieObject
 90
      499
 91
      503
 93
      161
310
90A3122203D2031272D30224000000000000284000
  0
ACAD_PROXY_OBJECT
  5
65
102
{ACAD_REACTORS
330
47
102
}
330
47
100
AcDbZombieObject
 90
      499
 91
      503
 93
      257
310
90E312D312F3222203D2031272D30220000000000003E0FC000000000000284000
  0
ACAD_PROXY_OBJECT
  5
66
102
{ACAD_REACTORS
330
47
102
}
330
47
100
AcDbZombieObject
 90
      499
 91
      503
 93
      225
310
90A3322203D2031272D302200000000000002100000000000000284000
  0
ACAD_PROXY_OBJECT
  5
67
102
{ACAD_REACTORS
330
47
102
}
330
47
100
AcDbZombieObject
 90
      499
 91
      503
 93
      225
310
90A3622203D2031272D302200000000000006100000000000000284000
  0
ACAD_PROXY_OBJECT
  5
68
102
{ACAD_REACTORS
330
47
102
}
330
47
100
AcDbZombieObject
 90
      499
 91
      503
 93
      249
310
90D31272D3022203D2031272D30220000000000000A100000000000000284000
  0
ACAD_PROXY_OBJECT
  5
2F
102
{ACAD_REACTORS
330
2A
102
}
330
2A
100
AcDbZombieObject
 90
      499
 91
      501
 93
      436
310
42CC9915DA5C99599C985B595049028333333333333E33F0000000000000F90107901411070040501600405405064090741402480A0340
1001
ACAD
1000
AcDbSavedByObjectVersion
1070
     0
  0
ACAD_PROXY_OBJECT
  5
32
102
{ACAD_REACTORS
330
2A
102
}
330
2A
100
AcDbZombieObject
 90
      499
 91
      501
 93
      388
310
4150985CDA58D07406404333333333333E33F0000000000000F90107A41107004050150841D405064090741402480A0350
1001
ACAD
1000
AcDbSavedByObjectVersion
1070
     0
  0
ACAD_PROXY_OBJECT
  5
36
102
{ACAD_REACTORS
330
2A
102
}
330
2A
100
AcDbZombieObject
 90
      499
 91
      501
 93
      428
310
42109C9A59DA1D195B90C409028333333333333E33F0000000000000F9010790141107004050150841D405064090741402480A029950
1001
ACAD
1000
AcDbSavedByObjectVersion
1070
     0
  0
ACAD_PROXY_OBJECT
  5
3A
102
{ACAD_REACTORS
330
2A
102
}
330
2A
100
AcDbZombieObject
 90
      499
 91
      501
 93
      452
310
42D0DBDB1BDC90DA185B99D95104090240C333333333333E33F0000000000000F90108901411070040501508421405064090741402480A0350
1001
ACAD
1000
AcDbSavedByObjectVersion
1070
     0
  0
ACAD_PROXY_OBJECT
  5
34
102
{ACAD_REACTORS
330
2A
102
}
330
2A
100
AcDbZombieObject
 90
      499
 91
      501
 93
      500
310
4290DBDB98D95C1D1D585B10940D028333333333333E33F0000000000000F90107902409070040501000000000018199010841D405064090740C02480A0340
1001
ACAD
1000
AcDbSavedByObjectVersion
1070
     0
  0
ACAD_PROXY_OBJECT
  5
35
102
{ACAD_REACTORS
330
2A
102
}
330
2A
100
AcDbZombieObject
 90
      499
 91
      501
 93
      412
310
40D11A5B50B409028333333333333E33F0000000000000F9010790141107004050150841D405064090741402480A02677FFFFFD0
1001
ACAD
1000
AcDbSavedByObjectVersion
1070
     0
  0
ACAD_PROXY_OBJECT
  5
3D
102
{ACAD_REACTORS
330
2A
102
}
330
2A
100
AcDbZombieObject
 90
      499
 91
      501
 93
      452
310
43115919D950DBDB1BDC93D999916409028333333333333E33F0000000000000F9010790141107004050150841D405064090741402480A0350
1001
ACAD
1000
AcDbSavedByObjectVersion
1070
     0
  0
ACAD_PROXY_OBJECT
  5
39
102
{ACAD_REACTORS
330
2A
102
}
330
2A
100
AcDbZombieObject
 90
      499
 91
      501
 93
      444
310
42D19858D95C185D1D195C9B90F409028333333333333E33F0000000000000F9010790141107004050150841D405064090741402480A0350
1001
ACAD
1000
AcDbSavedByObjectVersion
1070
     0
  0
ACAD_PROXY_OBJECT
  5
2B
102
{ACAD_REACTORS
330
2A
102
}
330
2A
100
AcDbZombieObject
 90
      499
 91
      501
 93
      380
310
41119B185D240901404333333333333E33F0000000000000F9010740A907004050150841D405064090741402480A1B50
1001
ACAD
1000
AcDbSavedByObjectVersion
1070
     0
  0
ACAD_PROXY_OBJECT
  5
2C
102
{ACAD_REACTORS
330
2A
102
}
330
2A
100
AcDbZombieObject
 90
      499
 91
      501
 93
      468
310
43519B185D15DA5D1A115919D95CD0140901404333333333333E33F0000000000000F90107409019070040501600405405064090741402480A1B50
1001
ACAD
1000
AcDbSavedByObjectVersion
1070
     0
  0
ACAD_PROXY_OBJECT
  5
2D
102
{ACAD_REACTORS
330
2A
102
}
330
2A
100
AcDbZombieObject
 90
      499
 91
      501
 93
      404
310
41D1DBDD5C985D5910240902404333333333333E33F0000000000000F9010740A9070040501641D405064090741402480A1B50
1001
ACAD
1000
AcDbSavedByObjectVersion
1070
     0
  0
ACAD_PROXY_OBJECT
  5
2E
102
{ACAD_REACTORS
330
2A
102
}
330
2A
100
AcDbZombieObject
 90
      499
 91
      501
 93
      492
310
4411DBDD5C985D5915DA5D1A115919D95CD0340902404333333333333E33F0000000000000F90107409019070040501600405405064090741402480A1B50
1001
ACAD
1000
AcDbSavedByObjectVersion
1070
     0
  0
ACAD_PROXY_OBJECT
  5
31
102
{ACAD_REACTORS
330
2A
102
}
330
2A
100
AcDbZombieObject
 90
      499
 91
      501
 93
      476
310
41921A5919195B90640502408333333333333E33F0000000000000F901079024090700405020000000000001110200405405064090740C02480A0340
1001
ACAD
1000
AcDbSavedByObjectVersion
1070
     0
  0
ACAD_PROXY_OBJECT
  5
3B
102
{ACAD_REACTORS
330
2A
102
}
330
2A
100
AcDbZombieObject
 90
      499
 91
      501
 93
      428
310
42529A5D1D195C93D999914409028333333333333E33F0000000000000F9010790141107004050150A41D405064090741402480A0350
1001
ACAD
1000
AcDbSavedByObjectVersion
1070
     0
  0
ACAD_PROXY_OBJECT
  5
38
102
{ACAD_REACTORS
330
2A
102
}
330
2A
100
AcDbZombieObject
 90
      499
 91
      501
 93
      444
310
42D31A5B995C185D1D195C9B90E409028333333333333E33F0000000000000F9010790141107004050750841D405064090741402483A0350
1001
ACAD
1000
AcDbSavedByObjectVersion
1070
     0
  0
ACAD_PROXY_OBJECT
  5
3C
102
{ACAD_REACTORS
330
2A
102
}
330
2A
100
AcDbZombieObject
 90
      499
 91
      501
 93
      444
310
42D3DD995C9A185B99D3D999915409028333333333333E33F0000000000000F9010790141107004050150941D405064090741402480A0350
1001
ACAD
1000
AcDbSavedByObjectVersion
1070
     0
  0
ACAD_PROXY_OBJECT
  5
33
102
{ACAD_REACTORS
330
2A
102
}
330
2A
100
AcDbZombieObject
 90
      499
 91
      501
 93
      428
310
425499585B1A5CDD1A58D08409038333333333333E33F0000000000000F9010740A907004050150800405405064090740C02480A1B40
1001
ACAD
1000
AcDbSavedByObjectVersion
1070
     0
  0
ACAD_PROXY_OBJECT
  5
42
102
{ACAD_REACTORS
330
2A
102
}
330
2A
100
AcDbZombieObject
 90
      499
 91
      501
 93
      420
310
4194DA1859195911B40902404333333333333E33F0000000000000F9010740A41107004050150800405405064090840C02480A0B40
1001
ACAD
1000
AcDbSavedByObjectVersion
1070
     0
  0
ACAD_PROXY_OBJECT
  5
41
102
{ACAD_REACTORS
330
2A
102
}
330
2A
100
AcDbZombieObject
 90
      499
 91
      501
 93
      516
310
4454DA18591959081DDA5D1A08195919D95CD1A40902404333333333333E33F0000000000000F901074090142907004050250800405405064090740C02480A0B40
1001
ACAD
1000
AcDbSavedByObjectVersion
1070
     0
  0
ACAD_PROXY_OBJECT
  5
3E
102
{ACAD_REACTORS
330
2A
102
}
330
2A
100
AcDbZombieObject
 90
      499
 91
      501
 93
      532
310
4394DA1859195CC81BD98811DC985E5174090240C333333333333E33F0000000000000F901079024090741D01000000000000111010841D405064090740C02480A0340
1001
ACAD
1000
AcDbSavedByObjectVersion
1070
     0
  0
ACAD_PROXY_OBJECT
  5
3F
102
{ACAD_REACTORS
330
2A
102
}
330
2A
100
AcDbZombieObject
 90
      499
 91
      501
 93
      476
310
41D4DAD95D18DA1E51840502408333333333333E33F0000000000000F901079024090741D01000000000000111010B41D405064090741802480A0340
1001
ACAD
1000
AcDbSavedByObjectVersion
1070
     0
  0
ACAD_PROXY_OBJECT
  5
37
102
{ACAD_REACTORS
330
2A
102
}
330
2A
100
AcDbZombieObject
 90
      499
 91
      501
 93
      412
310
41D51A1A58DAD95B90D409028333333333333E33F0000000000000F9010790141107004050150C41D405064090741402480A0350
1001
ACAD
1000
AcDbSavedByObjectVersion
1070
     0
  0
ACAD_PROXY_OBJECT
  5
30
102
{ACAD_REACTORS
330
2A
102
}
330
2A
100
AcDbZombieObject
 90
      499
 91
      501
 93
      420
310
4255DA5C99599C985B595059028333333333333E33F0000000000000F90107901411070040501600405405064090740C02480A0340
1001
ACAD
1000
AcDbSavedByObjectVersion
1070
     0
  0
ACAD_PROXY_OBJECT
  5
40
102
{ACAD_REACTORS
330
2A
102
}
330
2A
100
AcDbZombieObject
 90
      499
 91
      501
 93
      404
310
41560B54985E51940902404000000000000E03F0000000000000F9010740501907004050150841D405064090740C02480A1B40
1001
ACAD
1000
AcDbSavedByObjectVersion
1070
     0
  0
DICTIONARYVAR
  5
285
102
{ACAD_REACTORS
330
27A
102
}
330
27A
100
DictionaryVariables
280
     0
  1
1:1
  0
DICTIONARYVAR
  5
281
102
{ACAD_REACTORS
330
27A
102
}
330
27A
100
DictionaryVariables
280
     0
  1
3.500000
  0
DICTIONARYVAR
  5
282
102
{ACAD_REACTORS
330
27A
102
}
330
27A
100
DictionaryVariables
280
     0
  1
acadiso.lin
  0
DICTIONARYVAR
  5
27C
102
{ACAD_REACTORS
330
27A
102
}
330
27A
100
DictionaryVariables
280
     0
  1
Standard
  0
DICTIONARYVAR
  5
27B
102
{ACAD_REACTORS
330
27A
102
}
330
27A
100
DictionaryVariables
280
     0
  1
Standard
  0
DICTIONARYVAR
  5
283
102
{ACAD_REACTORS
330
27A
102
}
330
27A
100
DictionaryVariables
280
     0
  1
2
  0
DICTIONARYVAR
  5
284
102
{ACAD_REACTORS
330
27A
102
}
330
27A
100
DictionaryVariables
280
     0
  1
1
  0
DICTIONARYVAR
  5
286
102
{ACAD_REACTORS
330
27A
102
}
330
27A
100
DictionaryVariables
280
     0
  1
1
  0
DICTIONARYVAR
  5
27E
102
{ACAD_REACTORS
330
27A
102
}
330
27A
100
DictionaryVariables
280
     0
  1
80.000000
  0
DICTIONARYVAR
  5
27D
102
{ACAD_REACTORS
330
27A
102
}
330
27A
100
DictionaryVariables
280
     0
  1
5.000000
  0
DICTIONARY
  5
289
330
45
100
AcDbDictionary
  3
ACAD_XREC_ROUNDTRIP
360
28A
1001
ACAD
1000
TREAT_AS_HARD
1070
     1
  0
DICTIONARY
  5
287
330
44
100
AcDbDictionary
  3
ACAD_XREC_ROUNDTRIP
360
288
1001
ACAD
1000
TREAT_AS_HARD
1070
     1
  0
DICTIONARY
  5
28B
330
46
100
AcDbDictionary
  3
ACAD_XREC_ROUNDTRIP
360
28C
1001
ACAD
1000
TREAT_AS_HARD
1070
     1
  0
XRECORD
  5
28A
102
{ACAD_REACTORS
330
289
102
}
330
289
100
AcDbXrecord
102
MATERIAL
148
0.0
149
0.0
149
0.0
 93
        0
 94
      127
282
     0
 72
     1
 77
     1
171
     1
175
     1
179
     1
273
     0
  0
XRECORD
  5
288
102
{ACAD_REACTORS
330
287
102
}
330
287
100
AcDbXrecord
102
MATERIAL
148
0.0
149
0.0
149
0.0
 93
        0
 94
      127
282
     0
 72
     1
 77
     1
171
     1
175
     1
179
     1
273
     0
  0
XRECORD
  5
28C
102
{ACAD_REACTORS
330
28B
102
}
330
28B
100
AcDbXrecord
102
MATERIAL
148
0.0
149
0.0
149
0.0
 93
        0
 94
      127
282
     0
 72
     1
 77
     1
171
     1
175
     1
179
     1
273
     0
  0
ENDSEC
  0
EOF
