  0
SECTION
  2
HEADER
  9
$ACADVER
  1
AC1012
  9
$DWGCODEPAGE
  3
ansi_1252
  9
$INSBASE
 10
0.0
 20
0.0
 30
0.0
  9
$EXTMIN
 10
1.000000000000000E+20
 20
1.000000000000000E+20
 30
1.000000000000000E+20
  9
$EXTMAX
 10
-1.000000000000000E+20
 20
-1.000000000000000E+20
 30
-1.000000000000000E+20
  9
$LIMMIN
 10
0.0
 20
0.0
  9
$LIMMAX
 10
420.0
 20
297.0
  9
$ORTHOMODE
 70
     0
  9
$REGENMODE
 70
     1
  9
$FILLMODE
 70
     1
  9
$QTEXTMODE
 70
     0
  9
$MIRRTEXT
 70
     1
  9
$DRAGMODE
 70
     2
  9
$LTSCALE
 40
1.0
  9
$OSMODE
 70
    37
  9
$ATTMODE
 70
     1
  9
$TEXTSIZE
 40
2.5
  9
$TRACEWID
 40
1.0
  9
$TEXTSTYLE
  7
STANDARD
  9
$CLAYER
  8
0
  9
$CELTYPE
  6
BYLAYER
  9
$CECOLOR
 62
   256
  9
$CELTSCALE
 40
1.0
  9
$DELOBJ
 70
     1
  9
$DISPSILH
 70
     0
  9
$DIMSCALE
 40
1.0
  9
$DIMASZ
 40
2.5
  9
$DIMEXO
 40
0.625
  9
$DIMDLI
 40
3.75
  9
$DIMRND
 40
0.0
  9
$DIMDLE
 40
0.0
  9
$DIMEXE
 40
1.25
  9
$DIMTP
 40
0.0
  9
$DIMTM
 40
0.0
  9
$DIMTXT
 40
2.5
  9
$DIMCEN
 40
2.5
  9
$DIMTSZ
 40
0.0
  9
$DIMTOL
 70
     0
  9
$DIMLIM
 70
     0
  9
$DIMTIH
 70
     0
  9
$DIMTOH
 70
     0
  9
$DIMSE1
 70
     0
  9
$DIMSE2
 70
     0
  9
$DIMTAD
 70
     1
  9
$DIMZIN
 70
     8
  9
$DIMBLK
  1

  9
$DIMASO
 70
     1
  9
$DIMSHO
 70
     1
  9
$DIMPOST
  1

  9
$DIMAPOST
  1

  9
$DIMALT
 70
     0
  9
$DIMALTD
 70
     3
  9
$DIMALTF
 40
0.03937007874016
  9
$DIMLFAC
 40
1.0
  9
$DIMTOFL
 70
     1
  9
$DIMTVP
 40
0.0
  9
$DIMTIX
 70
     0
  9
$DIMSOXD
 70
     0
  9
$DIMSAH
 70
     0
  9
$DIMBLK1
  1

  9
$DIMBLK2
  1

  9
$DIMSTYLE
  2
ISO-25
  9
$DIMCLRD
 70
     0
  9
$DIMCLRE
 70
     0
  9
$DIMCLRT
 70
     0
  9
$DIMTFAC
 40
1.0
  9
$DIMGAP
 40
0.625
  9
$DIMJUST
 70
     0
  9
$DIMSD1
 70
     0
  9
$DIMSD2
 70
     0
  9
$DIMTOLJ
 70
     0
  9
$DIMTZIN
 70
     8
  9
$DIMALTZ
 70
     0
  9
$DIMALTTZ
 70
     0
  9
$DIMFIT
 70
     3
  9
$DIMUPT
 70
     0
  9
$DIMUNIT
 70
     2
  9
$DIMDEC
 70
     2
  9
$DIMTDEC
 70
     2
  9
$DIMALTU
 70
     2
  9
$DIMALTTD
 70
     3
  9
$DIMTXSTY
  7
STANDARD
  9
$DIMAUNIT
 70
     0
  9
$LUNITS
 70
     2
  9
$LUPREC
 70
     4
  9
$SKETCHINC
 40
1.0
  9
$FILLETRAD
 40
10.0
  9
$AUNITS
 70
     0
  9
$AUPREC
 70
     0
  9
$MENU
  1
.
  9
$ELEVATION
 40
0.0
  9
$PELEVATION
 40
0.0
  9
$THICKNESS
 40
0.0
  9
$LIMCHECK
 70
     0
  9
$CHAMFERA
 40
0.0
  9
$CHAMFERB
 40
0.0
  9
$CHAMFERC
 40
0.0
  9
$CHAMFERD
 40
0.0
  9
$SKPOLY
 70
     0
  9
$TDCREATE
 40
2457961.442001829
  9
$TDUPDATE
 40
2457961.442003634
  9
$TDINDWG
 40
0.0000000116
  9
$TDUSRTIMER
 40
0.0000000116
  9
$USRTIMER
 70
     1
  9
$ANGBASE
 50
0.0
  9
$ANGDIR
 70
     0
  9
$PDMODE
 70
     0
  9
$PDSIZE
 40
0.0
  9
$PLINEWID
 40
0.0
  9
$COORDS
 70
     1
  9
$SPLFRAME
 70
     0
  9
$SPLINETYPE
 70
     6
  9
$SPLINESEGS
 70
     8
  9
$ATTDIA
 70
     0
  9
$ATTREQ
 70
     1
  9
$HANDLING
 70
     1
  9
$HANDSEED
  5
27C
  9
$SURFTAB1
 70
     6
  9
$SURFTAB2
 70
     6
  9
$SURFTYPE
 70
     6
  9
$SURFU
 70
     6
  9
$SURFV
 70
     6
  9
$UCSNAME
  2

  9
$UCSORG
 10
0.0
 20
0.0
 30
0.0
  9
$UCSXDIR
 10
1.0
 20
0.0
 30
0.0
  9
$UCSYDIR
 10
0.0
 20
1.0
 30
0.0
  9
$PUCSNAME
  2

  9
$PUCSORG
 10
0.0
 20
0.0
 30
0.0
  9
$PUCSXDIR
 10
1.0
 20
0.0
 30
0.0
  9
$PUCSYDIR
 10
0.0
 20
1.0
 30
0.0
  9
$USERI1
 70
     0
  9
$USERI2
 70
     0
  9
$USERI3
 70
     0
  9
$USERI4
 70
     0
  9
$USERI5
 70
     0
  9
$USERR1
 40
0.0
  9
$USERR2
 40
0.0
  9
$USERR3
 40
0.0
  9
$USERR4
 40
0.0
  9
$USERR5
 40
0.0
  9
$WORLDVIEW
 70
     1
  9
$SHADEDGE
 70
     3
  9
$SHADEDIF
 70
    70
  9
$TILEMODE
 70
     1
  9
$MAXACTVP
 70
    64
  9
$PINSBASE
 10
0.0
 20
0.0
 30
0.0
  9
$PLIMCHECK
 70
     0
  9
$PEXTMIN
 10
1.000000000000000E+20
 20
1.000000000000000E+20
 30
1.000000000000000E+20
  9
$PEXTMAX
 10
-1.000000000000000E+20
 20
-1.000000000000000E+20
 30
-1.000000000000000E+20
  9
$PLIMMIN
 10
0.0
 20
0.0
  9
$PLIMMAX
 10
420.0
 20
297.0
  9
$UNITMODE
 70
     0
  9
$VISRETAIN
 70
     1
  9
$PLINEGEN
 70
     0
  9
$PSLTSCALE
 70
     1
  9
$TREEDEPTH
 70
  3020
  9
$PICKSTYLE
 70
     1
  9
$CMLSTYLE
  2
STANDARD
  9
$CMLJUST
 70
     0
  9
$CMLSCALE
 40
20.0
  9
$SAVEIMAGES
 70
     1
  0
ENDSEC
  0
SECTION
  2
CLASSES
  0
CLASS
  1
ACDBDICTIONARYWDFLT
  2
AcDbDictionaryWithDefault
  3
ObjectDBX Classes
 90
    32768
280
     0
281
     0
  0
CLASS
  1
VISUALSTYLE
  2
AcDbVisualStyle
  3
ObjectDBX Classes
 90
     4095
280
     0
281
     0
  0
CLASS
  1
MATERIAL
  2
AcDbMaterial
  3
ObjectDBX Classes
 90
     1153
280
     0
281
     0
  0
CLASS
  1
SCALE
  2
AcDbScale
  3
ObjectDBX Classes
 90
     1153
280
     0
281
     0
  0
CLASS
  1
TABLESTYLE
  2
AcDbTableStyle
  3
ObjectDBX Classes
 90
     4095
280
     0
281
     0
  0
CLASS
  1
MLEADERSTYLE
  2
AcDbMLeaderStyle
  3
ACDB_MLEADERSTYLE_CLASS
 90
     4095
280
     0
281
     0
  0
CLASS
  1
SUN
  2
AcDbSun
  3
SCENEOE
 90
     1153
280
     0
281
     0
  0
CLASS
  1
DICTIONARYVAR
  2
AcDbDictionaryVar
  3
ObjectDBX Classes
 90
        0
280
     0
281
     0
  0
CLASS
  1
XRECORD
  2
AcDbXrecord
  3
ObjectDBX Classes
 90
    32768
280
     0
281
     0
  0
CLASS
  1
LWPOLYLINE
  2
AcDbPolyline
  3
ObjectDBX Classes
 90
    32768
280
     0
281
     1
  0
CLASS
  1
HATCH
  2
AcDbHatch
  3
ObjectDBX Classes
 90
    32768
280
     0
281
     1
  0
CLASS
  1
ACDBPLACEHOLDER
  2
AcDbPlaceHolder
  3
ObjectDBX Classes
 90
        0
280
     0
281
     0
  0
CLASS
  1
LAYOUT
  2
AcDbLayout
  3
ObjectDBX Classes
 90
        0
280
     0
281
     0
  0
ENDSEC
  0
SECTION
  2
TABLES
  0
TABLE
  2
VPORT
  5
8
330
0
100
AcDbSymbolTable
 70
     1
  0
VPORT
  5
29
330
8
100
AcDbSymbolTableRecord
100
AcDbViewportTableRecord
  2
*ACTIVE
 70
     0
 10
0.0
 20
0.0
 11
1.0
 21
1.0
 12
0.0000000000000568
 22
-15.99999999999991
 13
0.0
 23
0.0
 14
10.0
 24
10.0
 15
10.0
 25
10.0
 16
0.0
 26
0.0
 36
1.0
 17
0.0
 27
0.0
 37
0.0
 40
301.9200000000002
 41
1.918918918918918
 42
50.0
 43
0.0
 44
0.0
 50
0.0
 51
0.0
 71
     0
 72
   100
 73
     1
 74
     3
 75
     0
 76
     0
 77
     0
 78
     0
  0
ENDTAB
  0
TABLE
  2
LTYPE
  5
5
330
0
100
AcDbSymbolTable
 70
     1
  0
LTYPE
  5
14
330
5
100
AcDbSymbolTableRecord
100
AcDbLinetypeTableRecord
  2
BYBLOCK
 70
     0
  3

 72
    65
 73
     0
 40
0.0
  0
LTYPE
  5
15
330
5
100
AcDbSymbolTableRecord
100
AcDbLinetypeTableRecord
  2
BYLAYER
 70
     0
  3

 72
    65
 73
     0
 40
0.0
  0
LTYPE
  5
16
330
5
100
AcDbSymbolTableRecord
100
AcDbLinetypeTableRecord
  2
CONTINUOUS
 70
     0
  3
Solid line
 72
    65
 73
     0
 40
0.0
  0
ENDTAB
  0
TABLE
  2
LAYER
  5
2
330
0
100
AcDbSymbolTable
 70
     4
  0
LAYER
  5
10
330
2
100
AcDbSymbolTableRecord
100
AcDbLayerTableRecord
  2
0
 70
     0
 62
     7
  6
CONTINUOUS
  0
LAYER
  5
6E
330
2
100
AcDbSymbolTableRecord
100
AcDbLayerTableRecord
  2
THICK
 70
     0
 62
     7
  6
CONTINUOUS
  0
LAYER
  5
6F
330
2
100
AcDbSymbolTableRecord
100
AcDbLayerTableRecord
  2
HIDDEN
 70
     0
 62
     7
  6
CONTINUOUS
  0
LAYER
  5
70
330
2
100
AcDbSymbolTableRecord
100
AcDbLayerTableRecord
  2
HASHLINES
 70
     0
 62
     7
  6
CONTINUOUS
  0
ENDTAB
  0
TABLE
  2
STYLE
  5
3
330
0
100
AcDbSymbolTable
 70
     1
  0
STYLE
  5
11
330
3
100
AcDbSymbolTableRecord
100
AcDbTextStyleTableRecord
  2
STANDARD
 70
     0
 40
0.0
 41
1.0
 50
0.0
 71
     0
 42
2.5
  3
txt
  4

  0
ENDTAB
  0
TABLE
  2
VIEW
  5
6
330
0
100
AcDbSymbolTable
 70
     0
  0
ENDTAB
  0
TABLE
  2
UCS
  5
7
330
0
100
AcDbSymbolTable
 70
     0
  0
ENDTAB
  0
TABLE
  2
APPID
  5
9
330
0
100
AcDbSymbolTable
 70
     3
  0
APPID
  5
12
330
9
100
AcDbSymbolTableRecord
100
AcDbRegAppTableRecord
  2
ACAD
 70
     0
  0
APPID
  5
71
330
9
100
AcDbSymbolTableRecord
100
AcDbRegAppTableRecord
  2
DBPROPERTIES
 70
     0
  0
APPID
  5
27B
330
9
100
AcDbSymbolTableRecord
100
AcDbRegAppTableRecord
  2
ACAD_MLEADERVER
 70
     0
  0
ENDTAB
  0
TABLE
  2
DIMSTYLE
  5
A
330
0
100
AcDbSymbolTable
 70
     1
  0
DIMSTYLE
105
27
330
A
100
AcDbSymbolTableRecord
100
AcDbDimStyleTableRecord
  2
ISO-25
 70
     0
  3

  4

  5

  6

  7

 40
1.0
 41
2.5
 42
0.625
 43
3.75
 44
1.25
 45
0.0
 46
0.0
 47
0.0
 48
0.0
140
2.5
141
2.5
142
0.0
143
0.03937007874016
144
1.0
145
0.0
146
1.0
147
0.625
 71
     0
 72
     0
 73
     0
 74
     0
 75
     0
 76
     0
 77
     1
 78
     8
170
     0
171
     3
172
     1
173
     0
174
     0
175
     0
176
     0
177
     0
178
     0
270
     2
271
     2
272
     2
273
     2
274
     3
340
11
275
     0
280
     0
281
     0
282
     0
283
     0
284
     8
285
     0
286
     0
287
     3
288
     0
  0
ENDTAB
  0
TABLE
  2
BLOCK_RECORD
  5
1
330
0
100
AcDbSymbolTable
 70
     0
  0
BLOCK_RECORD
  5
1F
330
1
100
AcDbSymbolTableRecord
100
AcDbBlockTableRecord
  2
*MODEL_SPACE
  0
BLOCK_RECORD
  5
1B
330
1
100
AcDbSymbolTableRecord
100
AcDbBlockTableRecord
  2
*PAPER_SPACE
  0
ENDTAB
  0
ENDSEC
  0
SECTION
  2
BLOCKS
  0
BLOCK
  5
20
330
1F
100
AcDbEntity
  8
0
100
AcDbBlockBegin
  2
*MODEL_SPACE
 70
     0
 10
0.0
 20
0.0
 30
0.0
  3
*MODEL_SPACE
  1

  0
ENDBLK
  5
21
330
1F
100
AcDbEntity
  8
0
100
AcDbBlockEnd
  0
BLOCK
  5
1C
330
1B
100
AcDbEntity
 67
     1
  8
0
100
AcDbBlockBegin
  2
*PAPER_SPACE
 70
     0
 10
0.0
 20
0.0
 30
0.0
  3
*PAPER_SPACE
  1

  0
ENDBLK
  5
1D
330
1B
100
AcDbEntity
 67
     1
  8
0
100
AcDbBlockEnd
  0
ENDSEC
  0
SECTION
  2
ENTITIES
  0
LINE
  5
72
330
1F
100
AcDbEntity
  8
HIDDEN
100
AcDbLine
 10
-113.6000000000001
 20
39.59999999999999
 30
0.0
 11
-113.6000000000001
 21
-0.0000000000000042
 31
0.0
1001
DBPROPERTIES
1002
{
1000
PbHidd
1002
}
  0
LINE
  5
73
330
1F
100
AcDbEntity
  8
HIDDEN
100
AcDbLine
 10
-113.6000000000001
 20
-0.0000000000000139
 30
0.0
 11
-113.6000000000001
 21
-39.60000000000002
 31
0.0
1001
DBPROPERTIES
1002
{
1000
PbHidd
1002
}
  0
LINE
  5
74
330
1F
100
AcDbEntity
  8
HIDDEN
100
AcDbLine
 10
-201.5400779044751
 20
-98.99999999999997
 30
0.0
 11
-201.5400779044751
 21
-0.0000000000000253
 31
0.0
1001
DBPROPERTIES
1002
{
1000
PbHidd
1002
}
  0
LINE
  5
75
330
1F
100
AcDbEntity
  8
HIDDEN
100
AcDbLine
 10
201.5400779044751
 20
0.0000000000000061
 30
0.0
 11
201.5400779044751
 21
-99.0
 31
0.0
1001
DBPROPERTIES
1002
{
1000
PbHidd
1002
}
  0
LINE
  5
76
330
1F
100
AcDbEntity
  8
THICK
100
AcDbLine
 10
201.5400779044751
 20
-99.0
 30
0.0
 11
201.5400779044751
 21
0.0000000000000061
 31
0.0
1001
DBPROPERTIES
1002
{
1000
PbThick
1002
}
  0
LINE
  5
77
330
1F
100
AcDbEntity
  8
THICK
100
AcDbLine
 10
-201.5400779044751
 20
-98.99999999999997
 30
0.0
 11
-201.5400779044751
 21
-0.0000000000000253
 31
0.0
1001
DBPROPERTIES
1002
{
1000
PbThick
1002
}
  0
LINE
  5
78
330
1F
100
AcDbEntity
  8
THICK
100
AcDbLine
 10
276.32
 20
0.0000000000000061
 30
0.0
 11
276.32
 21
99.0
 31
0.0
1001
DBPROPERTIES
1002
{
1000
PbThick
1002
}
  0
LINE
  5
79
330
1F
100
AcDbEntity
  8
THICK
100
AcDbLine
 10
201.5400848388672
 20
99.0
 30
0.0
 11
276.3200073242188
 21
99.0
 31
0.0
1001
DBPROPERTIES
1002
{
1000
PbThick
1002
}
  0
LINE
  5
7A
330
1F
100
AcDbEntity
  8
THICK
100
AcDbLine
 10
201.5400779044751
 20
0.0000000000000061
 30
0.0
 11
201.5400779044751
 21
99.0
 31
0.0
1001
DBPROPERTIES
1002
{
1000
PbThick
1002
}
  0
LINE
  5
7B
330
1F
100
AcDbEntity
  8
THICK
100
AcDbLine
 10
215.8399963378906
 20
-99.0
 30
0.0
 11
201.5400848388672
 21
-99.0
 31
0.0
1001
DBPROPERTIES
1002
{
1000
PbThick
1002
}
  0
LINE
  5
7C
330
1F
100
AcDbEntity
  8
THICK
100
AcDbLine
 10
227.2
 20
-67.41476099490377
 30
0.0
 11
223.2
 21
-67.41476099490377
 31
0.0
1001
DBPROPERTIES
1002
{
1000
PbThick
1002
}
  0
LINE
  5
7D
330
1F
100
AcDbEntity
  8
HIDDEN
100
AcDbLine
 10
223.2
 20
-73.15811643283335
 30
0.0
 11
227.2
 21
-73.15811643283335
 31
0.0
1001
DBPROPERTIES
1002
{
1000
PbHidd
1002
}
  0
LINE
  5
7E
330
1F
100
AcDbEntity
  8
HIDDEN
100
AcDbLine
 10
227.2
 20
-91.54075595056008
 30
0.0
 11
223.2
 21
-91.54075595056008
 31
0.0
1001
DBPROPERTIES
1002
{
1000
PbHidd
1002
}
  0
LINE
  5
7F
330
1F
100
AcDbEntity
  8
HIDDEN
100
AcDbLine
 10
223.2
 20
-93.71974178368184
 30
0.0
 11
227.2
 21
-93.71974178368184
 31
0.0
1001
DBPROPERTIES
1002
{
1000
PbHidd
1002
}
  0
LINE
  5
80
330
1F
100
AcDbEntity
  8
HIDDEN
100
AcDbLine
 10
227.2
 20
-98.95751613697668
 30
0.0
 11
223.2
 21
-98.95751613697668
 31
0.0
1001
DBPROPERTIES
1002
{
1000
PbHidd
1002
}
  0
LINE
  5
81
330
1F
100
AcDbEntity
  8
THICK
100
AcDbLine
 10
276.3200073242188
 20
-99.0
 30
0.0
 11
227.1999969482422
 21
-99.0
 31
0.0
1001
DBPROPERTIES
1002
{
1000
PbThick
1002
}
  0
LINE
  5
82
330
1F
100
AcDbEntity
  8
THICK
100
AcDbLine
 10
276.32
 20
-99.0
 30
0.0
 11
276.32
 21
0.0000000000000061
 31
0.0
1001
DBPROPERTIES
1002
{
1000
PbThick
1002
}
  0
LINE
  5
83
330
1F
100
AcDbEntity
  8
THICK
100
AcDbLine
 10
-201.5400848388672
 20
-99.0
 30
0.0
 11
-215.8399963378906
 21
-99.0
 31
0.0
1001
DBPROPERTIES
1002
{
1000
PbThick
1002
}
  0
LINE
  5
84
330
1F
100
AcDbEntity
  8
THICK
100
AcDbLine
 10
-201.5400779044751
 20
99.00000000000003
 30
0.0
 11
-201.5400779044751
 21
-0.0000000000000253
 31
0.0
1001
DBPROPERTIES
1002
{
1000
PbThick
1002
}
  0
LINE
  5
85
330
1F
100
AcDbEntity
  8
THICK
100
AcDbLine
 10
-276.3200073242188
 20
99.0
 30
0.0
 11
-201.5400848388672
 21
99.0
 31
0.0
1001
DBPROPERTIES
1002
{
1000
PbThick
1002
}
  0
LINE
  5
86
330
1F
100
AcDbEntity
  8
THICK
100
AcDbLine
 10
-276.3199999999999
 20
99.0
 30
0.0
 11
-276.3199999999999
 21
-0.0000000000000063
 31
0.0
1001
DBPROPERTIES
1002
{
1000
PbThick
1002
}
  0
LINE
  5
87
330
1F
100
AcDbEntity
  8
THICK
100
AcDbLine
 10
-276.3199999999999
 20
-99.0
 30
0.0
 11
-276.3199999999999
 21
-0.0000000000000063
 31
0.0
1001
DBPROPERTIES
1002
{
1000
PbThick
1002
}
  0
LINE
  5
88
330
1F
100
AcDbEntity
  8
THICK
100
AcDbLine
 10
-227.1999969482422
 20
-99.0
 30
0.0
 11
-276.3200073242188
 21
-99.0
 31
0.0
1001
DBPROPERTIES
1002
{
1000
PbThick
1002
}
  0
LINE
  5
89
330
1F
100
AcDbEntity
  8
HIDDEN
100
AcDbLine
 10
-223.2
 20
-98.95751613697668
 30
0.0
 11
-227.2
 21
-98.95751613697668
 31
0.0
1001
DBPROPERTIES
1002
{
1000
PbHidd
1002
}
  0
LINE
  5
8A
330
1F
100
AcDbEntity
  8
HIDDEN
100
AcDbLine
 10
-227.2
 20
-93.71974178368184
 30
0.0
 11
-223.2
 21
-93.71974178368184
 31
0.0
1001
DBPROPERTIES
1002
{
1000
PbHidd
1002
}
  0
LINE
  5
8B
330
1F
100
AcDbEntity
  8
HIDDEN
100
AcDbLine
 10
-223.2
 20
-91.54075595056008
 30
0.0
 11
-227.2
 21
-91.54075595056008
 31
0.0
1001
DBPROPERTIES
1002
{
1000
PbHidd
1002
}
  0
LINE
  5
8C
330
1F
100
AcDbEntity
  8
HIDDEN
100
AcDbLine
 10
-227.2
 20
-73.15811643283335
 30
0.0
 11
-223.2
 21
-73.15811643283335
 31
0.0
1001
DBPROPERTIES
1002
{
1000
PbHidd
1002
}
  0
LINE
  5
8D
330
1F
100
AcDbEntity
  8
THICK
100
AcDbLine
 10
-223.2
 20
-67.41476099490377
 30
0.0
 11
-227.2
 21
-67.41476099490377
 31
0.0
1001
DBPROPERTIES
1002
{
1000
PbThick
1002
}
  0
LINE
  5
8E
330
1F
100
AcDbEntity
  8
HIDDEN
100
AcDbLine
 10
173.8231551484672
 20
0.0000000000000059
 30
0.0
 11
173.8231551484672
 21
96.99999999999994
 31
0.0
1001
DBPROPERTIES
1002
{
1000
PbHidd
1002
}
  0
LINE
  5
8F
330
1F
100
AcDbEntity
  8
HIDDEN
100
AcDbLine
 10
284.0
 20
97.0
 30
0.0
 11
173.8231506347656
 21
97.0
 31
0.0
1001
DBPROPERTIES
1002
{
1000
PbHidd
1002
}
  0
LINE
  5
90
330
1F
100
AcDbEntity
  8
HIDDEN
100
AcDbLine
 10
173.8231506347656
 20
-97.0
 30
0.0
 11
284.0
 21
-97.0
 31
0.0
1001
DBPROPERTIES
1002
{
1000
PbHidd
1002
}
  0
LINE
  5
91
330
1F
100
AcDbEntity
  8
HIDDEN
100
AcDbLine
 10
173.8231551484672
 20
-96.99999999999994
 30
0.0
 11
173.8231551484672
 21
0.0000000000000059
 31
0.0
1001
DBPROPERTIES
1002
{
1000
PbHidd
1002
}
  0
LINE
  5
92
330
1F
100
AcDbEntity
  8
HIDDEN
100
AcDbLine
 10
-173.8231551484672
 20
-96.99999999999993
 30
0.0
 11
-173.8231551484672
 21
-0.0000000000000277
 31
0.0
1001
DBPROPERTIES
1002
{
1000
PbHidd
1002
}
  0
LINE
  5
93
330
1F
100
AcDbEntity
  8
HIDDEN
100
AcDbLine
 10
-284.0
 20
-97.0
 30
0.0
 11
-173.8231506347656
 21
-97.0
 31
0.0
1001
DBPROPERTIES
1002
{
1000
PbHidd
1002
}
  0
LINE
  5
94
330
1F
100
AcDbEntity
  8
HIDDEN
100
AcDbLine
 10
-173.8231506347656
 20
97.0
 30
0.0
 11
-284.0
 21
97.0
 31
0.0
1001
DBPROPERTIES
1002
{
1000
PbHidd
1002
}
  0
LINE
  5
95
330
1F
100
AcDbEntity
  8
HIDDEN
100
AcDbLine
 10
-173.8231551484672
 20
96.99999999999996
 30
0.0
 11
-173.8231551484672
 21
-0.0000000000000277
 31
0.0
1001
DBPROPERTIES
1002
{
1000
PbHidd
1002
}
  0
LINE
  5
96
330
1F
100
AcDbEntity
  8
THICK
100
AcDbLine
 10
284.0
 20
99.0
 30
0.0
 11
284.0
 21
-99.0
 31
0.0
1001
DBPROPERTIES
1002
{
1000
PbThick
1002
}
  0
LINE
  5
97
330
1F
100
AcDbEntity
  8
THICK
100
AcDbLine
 10
280.3200073242188
 20
99.0
 30
0.0
 11
284.0
 21
99.0
 31
0.0
1001
DBPROPERTIES
1002
{
1000
PbThick
1002
}
  0
LINE
  5
98
330
1F
100
AcDbEntity
  8
THICK
100
AcDbLine
 10
280.32
 20
99.0
 30
0.0
 11
280.32
 21
0.0000000000000061
 31
0.0
1001
DBPROPERTIES
1002
{
1000
PbThick
1002
}
  0
LINE
  5
99
330
1F
100
AcDbEntity
  8
THICK
100
AcDbLine
 10
280.32
 20
0.0000000000000061
 30
0.0
 11
280.32
 21
-99.0
 31
0.0
1001
DBPROPERTIES
1002
{
1000
PbThick
1002
}
  0
LINE
  5
9A
330
1F
100
AcDbEntity
  8
THICK
100
AcDbLine
 10
284.0
 20
-99.0
 30
0.0
 11
280.3200073242188
 21
-99.0
 31
0.0
1001
DBPROPERTIES
1002
{
1000
PbThick
1002
}
  0
LINE
  5
9B
330
1F
100
AcDbEntity
  8
HIDDEN
100
AcDbLine
 10
276.32
 20
0.0000000000000061
 30
0.0
 11
276.32
 21
-99.0
 31
0.0
1001
DBPROPERTIES
1002
{
1000
PbHidd
1002
}
  0
LINE
  5
9C
330
1F
100
AcDbEntity
  8
HIDDEN
100
AcDbLine
 10
280.32
 20
-99.0
 30
0.0
 11
280.32
 21
0.0000000000000061
 31
0.0
1001
DBPROPERTIES
1002
{
1000
PbHidd
1002
}
  0
LINE
  5
9D
330
1F
100
AcDbEntity
  8
THICK
100
AcDbLine
 10
-284.0
 20
99.0
 30
0.0
 11
-284.0
 21
-99.0
 31
0.0
1001
DBPROPERTIES
1002
{
1000
PbThick
1002
}
  0
LINE
  5
9E
330
1F
100
AcDbEntity
  8
THICK
100
AcDbLine
 10
-280.3200073242188
 20
-99.0
 30
0.0
 11
-284.0
 21
-99.0
 31
0.0
1001
DBPROPERTIES
1002
{
1000
PbThick
1002
}
  0
LINE
  5
9F
330
1F
100
AcDbEntity
  8
THICK
100
AcDbLine
 10
-280.3199999999999
 20
-99.0
 30
0.0
 11
-280.3199999999999
 21
-0.0000000000000058
 31
0.0
1001
DBPROPERTIES
1002
{
1000
PbThick
1002
}
  0
LINE
  5
A0
330
1F
100
AcDbEntity
  8
THICK
100
AcDbLine
 10
-280.3199999999999
 20
-0.0000000000000058
 30
0.0
 11
-280.3199999999999
 21
99.0
 31
0.0
1001
DBPROPERTIES
1002
{
1000
PbThick
1002
}
  0
LINE
  5
A1
330
1F
100
AcDbEntity
  8
THICK
100
AcDbLine
 10
-284.0
 20
99.0
 30
0.0
 11
-280.3200073242188
 21
99.0
 31
0.0
1001
DBPROPERTIES
1002
{
1000
PbThick
1002
}
  0
LINE
  5
A2
330
1F
100
AcDbEntity
  8
HIDDEN
100
AcDbLine
 10
-280.3199999999999
 20
-0.0000000000000058
 30
0.0
 11
-280.3199999999999
 21
-99.0
 31
0.0
1001
DBPROPERTIES
1002
{
1000
PbHidd
1002
}
  0
LINE
  5
A3
330
1F
100
AcDbEntity
  8
HIDDEN
100
AcDbLine
 10
-276.3199999999999
 20
-99.0
 30
0.0
 11
-276.3199999999999
 21
-0.0000000000000063
 31
0.0
1001
DBPROPERTIES
1002
{
1000
PbHidd
1002
}
  0
ARC
  5
A4
330
1F
100
AcDbEntity
  8
THICK
100
AcDbCircle
 10
0.00000000000001
 20
0.0
 30
0.0
 40
46.11401780391889
100
AcDbArc
 50
270.0000187239684
 51
89.99998127603165
1001
DBPROPERTIES
1002
{
1000
PbThick
1002
}
  0
ARC
  5
A5
330
1F
100
AcDbEntity
  8
THICK
100
AcDbCircle
 10
0.0000000000000086
 20
0.0
 30
0.0
 40
68.16
100
AcDbArc
 50
270.0000187239684
 51
0.0
1001
DBPROPERTIES
1002
{
1000
PbThick
1002
}
  0
ARC
  5
A6
330
1F
100
AcDbEntity
  8
THICK
100
AcDbCircle
 10
0.0000000000000086
 20
0.0
 30
0.0
 40
68.16
100
AcDbArc
 50
0.0
 51
89.99998127603165
1001
DBPROPERTIES
1002
{
1000
PbThick
1002
}
  0
ELLIPSE
  5
A7
330
1F
100
AcDbEntity
  8
THICK
100
AcDbEllipse
 10
-49.48153846153846
 20
0.000000000000003
 30
0.0
 11
-1.132560276131352E-15
 21
-18.49672382633455
 31
0.0
210
0.0
220
0.0
230
1.0
 40
0.8320502943378434
 41
-3.141592653589793
 42
-2.509467827383482
1001
DBPROPERTIES
1002
{
1000
PbThick
1002
}
  0
ARC
  5
A8
330
1F
100
AcDbEntity
  8
THICK
100
AcDbCircle
 10
-45.44000000000002
 20
0.0000000000000028
 30
0.0
 40
19.88
100
AcDbArc
 50
131.3543560551891
 51
228.6456439448109
1001
DBPROPERTIES
1002
{
1000
PbThick
1002
}
  0
ELLIPSE
  5
A9
330
1F
100
AcDbEntity
  8
THICK
100
AcDbEllipse
 10
-49.48153846153846
 20
0.000000000000003
 30
0.0
 11
-1.132560276131352E-15
 21
-18.49672382633455
 31
0.0
210
0.0
220
0.0
230
1.0
 40
0.8320502943378434
 41
-0.6321248262063112
 42
3.141592653589793
1001
DBPROPERTIES
1002
{
1000
PbThick
1002
}
  0
ARC
  5
AA
330
1F
100
AcDbEntity
  8
THICK
100
AcDbCircle
 10
0.0000000000000086
 20
0.0
 30
0.0
 40
68.16
100
AcDbArc
 50
180.0000198478428
 51
270.0000187239684
1001
DBPROPERTIES
1002
{
1000
PbThick
1002
}
  0
LINE
  5
AB
330
1F
100
AcDbEntity
  8
HIDDEN
100
AcDbLine
 10
173.8231551484672
 20
0.0000000000000059
 30
0.0
 11
173.8231551484672
 21
-96.99999999999994
 31
0.0
1001
DBPROPERTIES
1002
{
1000
PbHidd
1002
}
  0
LINE
  5
AC
330
1F
100
AcDbEntity
  8
HIDDEN
100
AcDbLine
 10
-173.8231551484672
 20
-96.99999999999993
 30
0.0
 11
-173.8231551484672
 21
-0.0000000000000277
 31
0.0
1001
DBPROPERTIES
1002
{
1000
PbHidd
1002
}
  0
LINE
  5
AD
330
1F
100
AcDbEntity
  8
HIDDEN
100
AcDbLine
 10
-173.8231551484672
 20
-0.0000000000000277
 30
0.0
 11
-173.8231551484672
 21
96.99999999999996
 31
0.0
1001
DBPROPERTIES
1002
{
1000
PbHidd
1002
}
  0
LINE
  5
AE
330
1F
100
AcDbEntity
  8
HIDDEN
100
AcDbLine
 10
173.8231551484672
 20
96.99999999999994
 30
0.0
 11
173.8231551484672
 21
0.0000000000000059
 31
0.0
1001
DBPROPERTIES
1002
{
1000
PbHidd
1002
}
  0
ARC
  5
AF
330
1F
100
AcDbEntity
  8
THICK
100
AcDbCircle
 10
0.0000000000000086
 20
0.0
 30
0.0
 40
68.16
100
AcDbArc
 50
89.99998127603165
 51
180.0000198478428
1001
DBPROPERTIES
1002
{
1000
PbThick
1002
}
  0
ELLIPSE
  5
B0
330
1F
100
AcDbEntity
  8
HIDDEN
100
AcDbEllipse
 10
-49.48153846153846
 20
0.000000000000003
 30
0.0
 11
-1.132560276131352E-15
 21
-18.49672382633455
 31
0.0
210
0.0
220
0.0
230
1.0
 40
0.8320502943378434
 41
-2.509467827383482
 42
-0.632124826206311
1001
DBPROPERTIES
1002
{
1000
PbHidd
1002
}
  0
ARC
  5
B1
330
1F
100
AcDbEntity
  8
THICK
100
AcDbCircle
 10
-56.80000000000003
 20
0.0000000000000035
 30
0.0
 40
22.72
100
AcDbArc
 50
308.7623324379539
 51
51.23766756204608
1001
DBPROPERTIES
1002
{
1000
PbThick
1002
}
  0
LINE
  5
B2
330
1F
100
AcDbEntity
  8
THICK
100
AcDbLine
 10
-42.57523345947266
 20
-17.71589279174805
 30
0.0
 11
-43.14820098876953
 21
-18.16110610961914
 31
0.0
1001
DBPROPERTIES
1002
{
1000
PbThick
1002
}
  0
LINE
  5
B3
330
1F
100
AcDbEntity
  8
THICK
100
AcDbLine
 10
-43.14820098876953
 20
-18.16110610961914
 30
0.0
 11
-43.74753952026367
 21
-18.5963020324707
 31
0.0
1001
DBPROPERTIES
1002
{
1000
PbThick
1002
}
  0
LINE
  5
B4
330
1F
100
AcDbEntity
  8
THICK
100
AcDbLine
 10
-43.74753952026367
 20
-18.5963020324707
 30
0.0
 11
-44.36481475830078
 21
-19.01411247253418
 31
0.0
1001
DBPROPERTIES
1002
{
1000
PbThick
1002
}
  0
LINE
  5
B5
330
1F
100
AcDbEntity
  8
THICK
100
AcDbLine
 10
-44.36481475830078
 20
-19.01411247253418
 30
0.0
 11
-44.99124526977539
 21
-19.40817451477051
 31
0.0
1001
DBPROPERTIES
1002
{
1000
PbThick
1002
}
  0
LINE
  5
B6
330
1F
100
AcDbEntity
  8
THICK
100
AcDbLine
 10
-44.99124526977539
 20
-19.40817451477051
 30
0.0
 11
-45.61727905273438
 21
-19.77339553833008
 31
0.0
1001
DBPROPERTIES
1002
{
1000
PbThick
1002
}
  0
LINE
  5
B7
330
1F
100
AcDbEntity
  8
THICK
100
AcDbLine
 10
-45.61727905273438
 20
-19.77339553833008
 30
0.0
 11
-46.23290252685547
 21
-20.10574150085449
 31
0.0
1001
DBPROPERTIES
1002
{
1000
PbThick
1002
}
  0
LINE
  5
B8
330
1F
100
AcDbEntity
  8
THICK
100
AcDbLine
 10
-46.23290252685547
 20
-20.10574150085449
 30
0.0
 11
-46.83772277832031
 21
-20.4072265625
 31
0.0
1001
DBPROPERTIES
1002
{
1000
PbThick
1002
}
  0
LINE
  5
B9
330
1F
100
AcDbEntity
  8
THICK
100
AcDbLine
 10
-46.83772277832031
 20
-20.4072265625
 30
0.0
 11
-47.46791839599609
 21
-20.69570159912109
 31
0.0
1001
DBPROPERTIES
1002
{
1000
PbThick
1002
}
  0
LINE
  5
BA
330
1F
100
AcDbEntity
  8
THICK
100
AcDbLine
 10
-47.46791839599609
 20
-20.69570159912109
 30
0.0
 11
-48.11946105957031
 21
-20.96688652038574
 31
0.0
1001
DBPROPERTIES
1002
{
1000
PbThick
1002
}
  0
LINE
  5
BB
330
1F
100
AcDbEntity
  8
THICK
100
AcDbLine
 10
-48.11946105957031
 20
-20.96688652038574
 30
0.0
 11
-48.78233337402344
 21
-21.21508979797363
 31
0.0
1001
DBPROPERTIES
1002
{
1000
PbThick
1002
}
  0
LINE
  5
BC
330
1F
100
AcDbEntity
  8
THICK
100
AcDbLine
 10
-48.78233337402344
 20
-21.21508979797363
 30
0.0
 11
-49.44652938842773
 21
-21.43584442138672
 31
0.0
1001
DBPROPERTIES
1002
{
1000
PbThick
1002
}
  0
LINE
  5
BD
330
1F
100
AcDbEntity
  8
THICK
100
AcDbLine
 10
-49.44652938842773
 20
-21.43584442138672
 30
0.0
 11
-50.10200881958008
 21
-21.62648773193359
 31
0.0
1001
DBPROPERTIES
1002
{
1000
PbThick
1002
}
  0
LINE
  5
BE
330
1F
100
AcDbEntity
  8
THICK
100
AcDbLine
 10
-50.10200881958008
 20
-21.62648773193359
 30
0.0
 11
-50.7386474609375
 21
-21.78553581237793
 31
0.0
1001
DBPROPERTIES
1002
{
1000
PbThick
1002
}
  0
LINE
  5
BF
330
1F
100
AcDbEntity
  8
THICK
100
AcDbLine
 10
-50.7386474609375
 20
-21.78553581237793
 30
0.0
 11
-51.35073471069336
 21
-21.91404914855957
 31
0.0
1001
DBPROPERTIES
1002
{
1000
PbThick
1002
}
  0
LINE
  5
C0
330
1F
100
AcDbEntity
  8
THICK
100
AcDbLine
 10
-51.35073471069336
 20
-21.91404914855957
 30
0.0
 11
-51.97372055053711
 21
-22.01986312866211
 31
0.0
1001
DBPROPERTIES
1002
{
1000
PbThick
1002
}
  0
LINE
  5
C1
330
1F
100
AcDbEntity
  8
THICK
100
AcDbLine
 10
-51.97372055053711
 20
-22.01986312866211
 30
0.0
 11
-52.6102294921875
 21
-22.10146713256836
 31
0.0
1001
DBPROPERTIES
1002
{
1000
PbThick
1002
}
  0
LINE
  5
C2
330
1F
100
AcDbEntity
  8
THICK
100
AcDbLine
 10
-52.6102294921875
 20
-22.10146713256836
 30
0.0
 11
-53.2511100769043
 21
-22.15585708618164
 31
0.0
1001
DBPROPERTIES
1002
{
1000
PbThick
1002
}
  0
LINE
  5
C3
330
1F
100
AcDbEntity
  8
THICK
100
AcDbLine
 10
-53.2511100769043
 20
-22.15585708618164
 30
0.0
 11
-53.88758087158203
 21
-22.18142890930176
 31
0.0
1001
DBPROPERTIES
1002
{
1000
PbThick
1002
}
  0
LINE
  5
C4
330
1F
100
AcDbEntity
  8
THICK
100
AcDbLine
 10
-53.88758087158203
 20
-22.18142890930176
 30
0.0
 11
-54.51140213012695
 21
-22.17802047729492
 31
0.0
1001
DBPROPERTIES
1002
{
1000
PbThick
1002
}
  0
LINE
  5
C5
330
1F
100
AcDbEntity
  8
THICK
100
AcDbLine
 10
-54.51140213012695
 20
-22.17802047729492
 30
0.0
 11
-55.11459732055664
 21
-22.14676666259766
 31
0.0
1001
DBPROPERTIES
1002
{
1000
PbThick
1002
}
  0
LINE
  5
C6
330
1F
100
AcDbEntity
  8
THICK
100
AcDbLine
 10
-55.11459732055664
 20
-22.14676666259766
 30
0.0
 11
-55.68965911865234
 21
-22.09030532836914
 31
0.0
1001
DBPROPERTIES
1002
{
1000
PbThick
1002
}
  0
LINE
  5
C7
330
1F
100
AcDbEntity
  8
THICK
100
AcDbLine
 10
-55.68965911865234
 20
-22.09030532836914
 30
0.0
 11
-56.24308013916016
 21
-22.01009941101074
 31
0.0
1001
DBPROPERTIES
1002
{
1000
PbThick
1002
}
  0
LINE
  5
C8
330
1F
100
AcDbEntity
  8
THICK
100
AcDbLine
 10
-56.24308013916016
 20
-22.01009941101074
 30
0.0
 11
-56.80317687988281
 21
-21.90188407897949
 31
0.0
1001
DBPROPERTIES
1002
{
1000
PbThick
1002
}
  0
LINE
  5
C9
330
1F
100
AcDbEntity
  8
THICK
100
AcDbLine
 10
-56.80317687988281
 20
-21.90188407897949
 30
0.0
 11
-57.36472320556641
 21
-21.76442337036133
 31
0.0
1001
DBPROPERTIES
1002
{
1000
PbThick
1002
}
  0
LINE
  5
CA
330
1F
100
AcDbEntity
  8
THICK
100
AcDbLine
 10
-57.36472320556641
 20
-21.76442337036133
 30
0.0
 11
-57.92127990722656
 21
-21.59783172607422
 31
0.0
1001
DBPROPERTIES
1002
{
1000
PbThick
1002
}
  0
LINE
  5
CB
330
1F
100
AcDbEntity
  8
THICK
100
AcDbLine
 10
-57.92127990722656
 20
-21.59783172607422
 30
0.0
 11
-58.46691131591797
 21
-21.40321922302246
 31
0.0
1001
DBPROPERTIES
1002
{
1000
PbThick
1002
}
  0
LINE
  5
CC
330
1F
100
AcDbEntity
  8
THICK
100
AcDbLine
 10
-58.46691131591797
 20
-21.40321922302246
 30
0.0
 11
-58.99630355834961
 21
-21.18256378173828
 31
0.0
1001
DBPROPERTIES
1002
{
1000
PbThick
1002
}
  0
LINE
  5
CD
330
1F
100
AcDbEntity
  8
THICK
100
AcDbLine
 10
-58.99630355834961
 20
-21.18256378173828
 30
0.0
 11
-59.50467681884766
 21
-20.93905448913574
 31
0.0
1001
DBPROPERTIES
1002
{
1000
PbThick
1002
}
  0
LINE
  5
CE
330
1F
100
AcDbEntity
  8
THICK
100
AcDbLine
 10
-59.50467681884766
 20
-20.93905448913574
 30
0.0
 11
-59.98760986328125
 21
-20.67658042907715
 31
0.0
1001
DBPROPERTIES
1002
{
1000
PbThick
1002
}
  0
LINE
  5
CF
330
1F
100
AcDbEntity
  8
THICK
100
AcDbLine
 10
-59.98760986328125
 20
-20.67658042907715
 30
0.0
 11
-60.44139099121094
 21
-20.4002571105957
 31
0.0
1001
DBPROPERTIES
1002
{
1000
PbThick
1002
}
  0
LINE
  5
D0
330
1F
100
AcDbEntity
  8
THICK
100
AcDbLine
 10
-60.44139099121094
 20
-20.4002571105957
 30
0.0
 11
-60.88088989257812
 21
-20.10263061523438
 31
0.0
1001
DBPROPERTIES
1002
{
1000
PbThick
1002
}
  0
LINE
  5
D1
330
1F
100
AcDbEntity
  8
THICK
100
AcDbLine
 10
-60.88088989257812
 20
-20.10263061523438
 30
0.0
 11
-61.31764221191406
 21
-19.77538681030273
 31
0.0
1001
DBPROPERTIES
1002
{
1000
PbThick
1002
}
  0
LINE
  5
D2
330
1F
100
AcDbEntity
  8
THICK
100
AcDbLine
 10
-61.31764221191406
 20
-19.77538681030273
 30
0.0
 11
-61.74778366088867
 21
-19.41944885253906
 31
0.0
1001
DBPROPERTIES
1002
{
1000
PbThick
1002
}
  0
LINE
  5
D3
330
1F
100
AcDbEntity
  8
THICK
100
AcDbLine
 10
-61.74778366088867
 20
-19.41944885253906
 30
0.0
 11
-62.16788482666016
 21
-19.03627014160156
 31
0.0
1001
DBPROPERTIES
1002
{
1000
PbThick
1002
}
  0
LINE
  5
D4
330
1F
100
AcDbEntity
  8
THICK
100
AcDbLine
 10
-62.16788482666016
 20
-19.03627014160156
 30
0.0
 11
-62.57514190673828
 21
-18.62813949584961
 31
0.0
1001
DBPROPERTIES
1002
{
1000
PbThick
1002
}
  0
LINE
  5
D5
330
1F
100
AcDbEntity
  8
THICK
100
AcDbLine
 10
-62.57514190673828
 20
-18.62813949584961
 30
0.0
 11
-62.96688079833984
 21
-18.19743919372559
 31
0.0
1001
DBPROPERTIES
1002
{
1000
PbThick
1002
}
  0
LINE
  5
D6
330
1F
100
AcDbEntity
  8
THICK
100
AcDbLine
 10
-62.96688079833984
 20
-18.19743919372559
 30
0.0
 11
-63.34108734130859
 21
-17.74724006652832
 31
0.0
1001
DBPROPERTIES
1002
{
1000
PbThick
1002
}
  0
LINE
  5
D7
330
1F
100
AcDbEntity
  8
THICK
100
AcDbLine
 10
-63.34108734130859
 20
-17.74724006652832
 30
0.0
 11
-63.6960563659668
 21
-17.28122711181641
 31
0.0
1001
DBPROPERTIES
1002
{
1000
PbThick
1002
}
  0
LINE
  5
D8
330
1F
100
AcDbEntity
  8
THICK
100
AcDbLine
 10
-63.6960563659668
 20
-17.28122711181641
 30
0.0
 11
-64.03021240234375
 21
-16.80327033996582
 31
0.0
1001
DBPROPERTIES
1002
{
1000
PbThick
1002
}
  0
LINE
  5
D9
330
1F
100
AcDbEntity
  8
THICK
100
AcDbLine
 10
-64.03021240234375
 20
-16.80327033996582
 30
0.0
 11
-64.34257507324219
 21
-16.31805419921875
 31
0.0
1001
DBPROPERTIES
1002
{
1000
PbThick
1002
}
  0
LINE
  5
DA
330
1F
100
AcDbEntity
  8
THICK
100
AcDbLine
 10
-64.34257507324219
 20
-16.31805419921875
 30
0.0
 11
-64.63284301757812
 21
-15.82959938049316
 31
0.0
1001
DBPROPERTIES
1002
{
1000
PbThick
1002
}
  0
LINE
  5
DB
330
1F
100
AcDbEntity
  8
THICK
100
AcDbLine
 10
-64.63284301757812
 20
-15.82959938049316
 30
0.0
 11
-64.915283203125
 21
-15.31487655639648
 31
0.0
1001
DBPROPERTIES
1002
{
1000
PbThick
1002
}
  0
LINE
  5
DC
330
1F
100
AcDbEntity
  8
THICK
100
AcDbLine
 10
-64.915283203125
 20
-15.31487655639648
 30
0.0
 11
-65.1926498413086
 21
-14.7665319442749
 31
0.0
1001
DBPROPERTIES
1002
{
1000
PbThick
1002
}
  0
LINE
  5
DD
330
1F
100
AcDbEntity
  8
THICK
100
AcDbLine
 10
-65.1926498413086
 20
-14.7665319442749
 30
0.0
 11
-65.4601821899414
 21
-14.19132423400879
 31
0.0
1001
DBPROPERTIES
1002
{
1000
PbThick
1002
}
  0
LINE
  5
DE
330
1F
100
AcDbEntity
  8
THICK
100
AcDbLine
 10
-65.4601821899414
 20
-14.19132423400879
 30
0.0
 11
-65.71403503417969
 21
-13.59691047668457
 31
0.0
1001
DBPROPERTIES
1002
{
1000
PbThick
1002
}
  0
LINE
  5
DF
330
1F
100
AcDbEntity
  8
THICK
100
AcDbLine
 10
-65.71403503417969
 20
-13.59691047668457
 30
0.0
 11
-65.95121765136719
 21
-12.99170017242432
 31
0.0
1001
DBPROPERTIES
1002
{
1000
PbThick
1002
}
  0
LINE
  5
E0
330
1F
100
AcDbEntity
  8
THICK
100
AcDbLine
 10
-65.95121765136719
 20
-12.99170017242432
 30
0.0
 11
-66.16941833496094
 21
-12.38493347167969
 31
0.0
1001
DBPROPERTIES
1002
{
1000
PbThick
1002
}
  0
LINE
  5
E1
330
1F
100
AcDbEntity
  8
THICK
100
AcDbLine
 10
-66.16941833496094
 20
-12.38493347167969
 30
0.0
 11
-66.36709594726562
 21
-11.78666877746582
 31
0.0
1001
DBPROPERTIES
1002
{
1000
PbThick
1002
}
  0
LINE
  5
E2
330
1F
100
AcDbEntity
  8
THICK
100
AcDbLine
 10
-66.36709594726562
 20
-11.78666877746582
 30
0.0
 11
-66.5515365600586
 21
-11.17838573455811
 31
0.0
1001
DBPROPERTIES
1002
{
1000
PbThick
1002
}
  0
LINE
  5
E3
330
1F
100
AcDbEntity
  8
THICK
100
AcDbLine
 10
-66.5515365600586
 20
-11.17838573455811
 30
0.0
 11
-66.73188781738281
 21
-10.52906799316406
 31
0.0
1001
DBPROPERTIES
1002
{
1000
PbThick
1002
}
  0
LINE
  5
E4
330
1F
100
AcDbEntity
  8
THICK
100
AcDbLine
 10
-66.73188781738281
 20
-10.52906799316406
 30
0.0
 11
-66.90191650390625
 21
-9.856356620788574
 31
0.0
1001
DBPROPERTIES
1002
{
1000
PbThick
1002
}
  0
LINE
  5
E5
330
1F
100
AcDbEntity
  8
THICK
100
AcDbLine
 10
-66.90191650390625
 20
-9.856356620788574
 30
0.0
 11
-67.05674743652344
 21
-9.179704666137695
 31
0.0
1001
DBPROPERTIES
1002
{
1000
PbThick
1002
}
  0
LINE
  5
E6
330
1F
100
AcDbEntity
  8
THICK
100
AcDbLine
 10
-67.05674743652344
 20
-9.179704666137695
 30
0.0
 11
-67.19355010986328
 21
-8.520299911499023
 31
0.0
1001
DBPROPERTIES
1002
{
1000
PbThick
1002
}
  0
LINE
  5
E7
330
1F
100
AcDbEntity
  8
THICK
100
AcDbLine
 10
-67.19355010986328
 20
-8.520299911499023
 30
0.0
 11
-67.3148193359375
 21
-7.872710227966309
 31
0.0
1001
DBPROPERTIES
1002
{
1000
PbThick
1002
}
  0
LINE
  5
E8
330
1F
100
AcDbEntity
  8
THICK
100
AcDbLine
 10
-67.3148193359375
 20
-7.872710227966309
 30
0.0
 11
-67.42790222167969
 21
-7.201243877410889
 31
0.0
1001
DBPROPERTIES
1002
{
1000
PbThick
1002
}
  0
LINE
  5
E9
330
1F
100
AcDbEntity
  8
THICK
100
AcDbLine
 10
-67.42790222167969
 20
-7.201243877410889
 30
0.0
 11
-67.53181457519531
 21
-6.508811950683594
 31
0.0
1001
DBPROPERTIES
1002
{
1000
PbThick
1002
}
  0
LINE
  5
EA
330
1F
100
AcDbEntity
  8
THICK
100
AcDbLine
 10
-67.53181457519531
 20
-6.508811950683594
 30
0.0
 11
-67.62551879882812
 21
-5.799177646636963
 31
0.0
1001
DBPROPERTIES
1002
{
1000
PbThick
1002
}
  0
LINE
  5
EB
330
1F
100
AcDbEntity
  8
THICK
100
AcDbLine
 10
-67.62551879882812
 20
-5.799177646636963
 30
0.0
 11
-67.70840454101562
 21
-5.076363563537598
 31
0.0
1001
DBPROPERTIES
1002
{
1000
PbThick
1002
}
  0
LINE
  5
EC
330
1F
100
AcDbEntity
  8
THICK
100
AcDbLine
 10
-67.70840454101562
 20
-5.076363563537598
 30
0.0
 11
-67.780029296875
 21
-4.344487190246582
 31
0.0
1001
DBPROPERTIES
1002
{
1000
PbThick
1002
}
  0
LINE
  5
ED
330
1F
100
AcDbEntity
  8
THICK
100
AcDbLine
 10
-67.780029296875
 20
-4.344487190246582
 30
0.0
 11
-67.84003448486328
 21
-3.607616901397705
 31
0.0
1001
DBPROPERTIES
1002
{
1000
PbThick
1002
}
  0
LINE
  5
EE
330
1F
100
AcDbEntity
  8
THICK
100
AcDbLine
 10
-67.84003448486328
 20
-3.607616901397705
 30
0.0
 11
-67.88844299316406
 21
-2.869971513748169
 31
0.0
1001
DBPROPERTIES
1002
{
1000
PbThick
1002
}
  0
LINE
  5
EF
330
1F
100
AcDbEntity
  8
THICK
100
AcDbLine
 10
-67.88844299316406
 20
-2.869971513748169
 30
0.0
 11
-67.92538452148438
 21
-2.135939836502075
 31
0.0
1001
DBPROPERTIES
1002
{
1000
PbThick
1002
}
  0
LINE
  5
F0
330
1F
100
AcDbEntity
  8
THICK
100
AcDbLine
 10
-67.92538452148438
 20
-2.135939836502075
 30
0.0
 11
-67.95104217529297
 21
-1.409931540489197
 31
0.0
1001
DBPROPERTIES
1002
{
1000
PbThick
1002
}
  0
LINE
  5
F1
330
1F
100
AcDbEntity
  8
THICK
100
AcDbLine
 10
-67.95104217529297
 20
-1.409931540489197
 30
0.0
 11
-67.96598052978516
 21
-0.696444571018219
 31
0.0
1001
DBPROPERTIES
1002
{
1000
PbThick
1002
}
  0
LINE
  5
F2
330
1F
100
AcDbEntity
  8
THICK
100
AcDbLine
 10
-67.96598052978516
 20
-0.696444571018219
 30
0.0
 11
-67.97081756591797
 21
0.0000000000000042
 31
0.0
1001
DBPROPERTIES
1002
{
1000
PbThick
1002
}
  0
LINE
  5
F3
330
1F
100
AcDbEntity
  8
THICK
100
AcDbLine
 10
-67.97081756591797
 20
0.0000000000000042
 30
0.0
 11
-67.96598052978516
 21
0.696444571018219
 31
0.0
1001
DBPROPERTIES
1002
{
1000
PbThick
1002
}
  0
LINE
  5
F4
330
1F
100
AcDbEntity
  8
THICK
100
AcDbLine
 10
-67.96598052978516
 20
0.696444571018219
 30
0.0
 11
-67.95104217529297
 21
1.409931540489197
 31
0.0
1001
DBPROPERTIES
1002
{
1000
PbThick
1002
}
  0
LINE
  5
F5
330
1F
100
AcDbEntity
  8
THICK
100
AcDbLine
 10
-67.95104217529297
 20
1.409931540489197
 30
0.0
 11
-67.92538452148438
 21
2.135939836502075
 31
0.0
1001
DBPROPERTIES
1002
{
1000
PbThick
1002
}
  0
LINE
  5
F6
330
1F
100
AcDbEntity
  8
THICK
100
AcDbLine
 10
-67.92538452148438
 20
2.135939836502075
 30
0.0
 11
-67.88844299316406
 21
2.869971513748169
 31
0.0
1001
DBPROPERTIES
1002
{
1000
PbThick
1002
}
  0
LINE
  5
F7
330
1F
100
AcDbEntity
  8
THICK
100
AcDbLine
 10
-67.88844299316406
 20
2.869971513748169
 30
0.0
 11
-67.84003448486328
 21
3.607616901397705
 31
0.0
1001
DBPROPERTIES
1002
{
1000
PbThick
1002
}
  0
LINE
  5
F8
330
1F
100
AcDbEntity
  8
THICK
100
AcDbLine
 10
-67.84003448486328
 20
3.607616901397705
 30
0.0
 11
-67.780029296875
 21
4.344487190246582
 31
0.0
1001
DBPROPERTIES
1002
{
1000
PbThick
1002
}
  0
LINE
  5
F9
330
1F
100
AcDbEntity
  8
THICK
100
AcDbLine
 10
-67.780029296875
 20
4.344487190246582
 30
0.0
 11
-67.70840454101562
 21
5.076363563537598
 31
0.0
1001
DBPROPERTIES
1002
{
1000
PbThick
1002
}
  0
LINE
  5
FA
330
1F
100
AcDbEntity
  8
THICK
100
AcDbLine
 10
-67.70840454101562
 20
5.076363563537598
 30
0.0
 11
-67.62551879882812
 21
5.799177646636963
 31
0.0
1001
DBPROPERTIES
1002
{
1000
PbThick
1002
}
  0
LINE
  5
FB
330
1F
100
AcDbEntity
  8
THICK
100
AcDbLine
 10
-67.62551879882812
 20
5.799177646636963
 30
0.0
 11
-67.53181457519531
 21
6.508811950683594
 31
0.0
1001
DBPROPERTIES
1002
{
1000
PbThick
1002
}
  0
LINE
  5
FC
330
1F
100
AcDbEntity
  8
THICK
100
AcDbLine
 10
-67.53181457519531
 20
6.508811950683594
 30
0.0
 11
-67.42790222167969
 21
7.201243877410889
 31
0.0
1001
DBPROPERTIES
1002
{
1000
PbThick
1002
}
  0
LINE
  5
FD
330
1F
100
AcDbEntity
  8
THICK
100
AcDbLine
 10
-67.42790222167969
 20
7.201243877410889
 30
0.0
 11
-67.3148193359375
 21
7.872710227966309
 31
0.0
1001
DBPROPERTIES
1002
{
1000
PbThick
1002
}
  0
LINE
  5
FE
330
1F
100
AcDbEntity
  8
THICK
100
AcDbLine
 10
-67.3148193359375
 20
7.872710227966309
 30
0.0
 11
-67.19355010986328
 21
8.520299911499023
 31
0.0
1001
DBPROPERTIES
1002
{
1000
PbThick
1002
}
  0
LINE
  5
FF
330
1F
100
AcDbEntity
  8
THICK
100
AcDbLine
 10
-67.19355010986328
 20
8.520299911499023
 30
0.0
 11
-67.05674743652344
 21
9.179704666137695
 31
0.0
1001
DBPROPERTIES
1002
{
1000
PbThick
1002
}
  0
LINE
  5
100
330
1F
100
AcDbEntity
  8
THICK
100
AcDbLine
 10
-67.05674743652344
 20
9.179704666137695
 30
0.0
 11
-66.90191650390625
 21
9.856356620788574
 31
0.0
1001
DBPROPERTIES
1002
{
1000
PbThick
1002
}
  0
LINE
  5
101
330
1F
100
AcDbEntity
  8
THICK
100
AcDbLine
 10
-66.90191650390625
 20
9.856356620788574
 30
0.0
 11
-66.73188781738281
 21
10.52906799316406
 31
0.0
1001
DBPROPERTIES
1002
{
1000
PbThick
1002
}
  0
LINE
  5
102
330
1F
100
AcDbEntity
  8
THICK
100
AcDbLine
 10
-66.73188781738281
 20
10.52906799316406
 30
0.0
 11
-66.5515365600586
 21
11.17838573455811
 31
0.0
1001
DBPROPERTIES
1002
{
1000
PbThick
1002
}
  0
LINE
  5
103
330
1F
100
AcDbEntity
  8
THICK
100
AcDbLine
 10
-66.5515365600586
 20
11.17838573455811
 30
0.0
 11
-66.36709594726562
 21
11.78666877746582
 31
0.0
1001
DBPROPERTIES
1002
{
1000
PbThick
1002
}
  0
LINE
  5
104
330
1F
100
AcDbEntity
  8
THICK
100
AcDbLine
 10
-66.36709594726562
 20
11.78666877746582
 30
0.0
 11
-66.16941833496094
 21
12.38493347167969
 31
0.0
1001
DBPROPERTIES
1002
{
1000
PbThick
1002
}
  0
LINE
  5
105
330
1F
100
AcDbEntity
  8
THICK
100
AcDbLine
 10
-66.16941833496094
 20
12.38493347167969
 30
0.0
 11
-65.95121765136719
 21
12.99170017242432
 31
0.0
1001
DBPROPERTIES
1002
{
1000
PbThick
1002
}
  0
LINE
  5
106
330
1F
100
AcDbEntity
  8
THICK
100
AcDbLine
 10
-65.95121765136719
 20
12.99170017242432
 30
0.0
 11
-65.71403503417969
 21
13.59691047668457
 31
0.0
1001
DBPROPERTIES
1002
{
1000
PbThick
1002
}
  0
LINE
  5
107
330
1F
100
AcDbEntity
  8
THICK
100
AcDbLine
 10
-65.71403503417969
 20
13.59691047668457
 30
0.0
 11
-65.4601821899414
 21
14.19132423400879
 31
0.0
1001
DBPROPERTIES
1002
{
1000
PbThick
1002
}
  0
LINE
  5
108
330
1F
100
AcDbEntity
  8
THICK
100
AcDbLine
 10
-65.4601821899414
 20
14.19132423400879
 30
0.0
 11
-65.1926498413086
 21
14.7665319442749
 31
0.0
1001
DBPROPERTIES
1002
{
1000
PbThick
1002
}
  0
LINE
  5
109
330
1F
100
AcDbEntity
  8
THICK
100
AcDbLine
 10
-65.1926498413086
 20
14.7665319442749
 30
0.0
 11
-64.915283203125
 21
15.31487655639648
 31
0.0
1001
DBPROPERTIES
1002
{
1000
PbThick
1002
}
  0
LINE
  5
10A
330
1F
100
AcDbEntity
  8
THICK
100
AcDbLine
 10
-64.915283203125
 20
15.31487655639648
 30
0.0
 11
-64.63284301757812
 21
15.82959938049316
 31
0.0
1001
DBPROPERTIES
1002
{
1000
PbThick
1002
}
  0
LINE
  5
10B
330
1F
100
AcDbEntity
  8
THICK
100
AcDbLine
 10
-64.63284301757812
 20
15.82959938049316
 30
0.0
 11
-64.34257507324219
 21
16.31805419921875
 31
0.0
1001
DBPROPERTIES
1002
{
1000
PbThick
1002
}
  0
LINE
  5
10C
330
1F
100
AcDbEntity
  8
THICK
100
AcDbLine
 10
-64.34257507324219
 20
16.31805419921875
 30
0.0
 11
-64.03021240234375
 21
16.80327033996582
 31
0.0
1001
DBPROPERTIES
1002
{
1000
PbThick
1002
}
  0
LINE
  5
10D
330
1F
100
AcDbEntity
  8
THICK
100
AcDbLine
 10
-64.03021240234375
 20
16.80327033996582
 30
0.0
 11
-63.6960563659668
 21
17.28122711181641
 31
0.0
1001
DBPROPERTIES
1002
{
1000
PbThick
1002
}
  0
LINE
  5
10E
330
1F
100
AcDbEntity
  8
THICK
100
AcDbLine
 10
-63.6960563659668
 20
17.28122711181641
 30
0.0
 11
-63.34108734130859
 21
17.74724006652832
 31
0.0
1001
DBPROPERTIES
1002
{
1000
PbThick
1002
}
  0
LINE
  5
10F
330
1F
100
AcDbEntity
  8
THICK
100
AcDbLine
 10
-63.34108734130859
 20
17.74724006652832
 30
0.0
 11
-62.96688079833984
 21
18.19743919372559
 31
0.0
1001
DBPROPERTIES
1002
{
1000
PbThick
1002
}
  0
LINE
  5
110
330
1F
100
AcDbEntity
  8
THICK
100
AcDbLine
 10
-62.96688079833984
 20
18.19743919372559
 30
0.0
 11
-62.57514190673828
 21
18.62813949584961
 31
0.0
1001
DBPROPERTIES
1002
{
1000
PbThick
1002
}
  0
LINE
  5
111
330
1F
100
AcDbEntity
  8
THICK
100
AcDbLine
 10
-62.57514190673828
 20
18.62813949584961
 30
0.0
 11
-62.16788482666016
 21
19.03627014160156
 31
0.0
1001
DBPROPERTIES
1002
{
1000
PbThick
1002
}
  0
LINE
  5
112
330
1F
100
AcDbEntity
  8
THICK
100
AcDbLine
 10
-62.16788482666016
 20
19.03627014160156
 30
0.0
 11
-61.74778366088867
 21
19.41944885253906
 31
0.0
1001
DBPROPERTIES
1002
{
1000
PbThick
1002
}
  0
LINE
  5
113
330
1F
100
AcDbEntity
  8
THICK
100
AcDbLine
 10
-61.74778366088867
 20
19.41944885253906
 30
0.0
 11
-61.31764221191406
 21
19.77538681030273
 31
0.0
1001
DBPROPERTIES
1002
{
1000
PbThick
1002
}
  0
LINE
  5
114
330
1F
100
AcDbEntity
  8
THICK
100
AcDbLine
 10
-61.31764221191406
 20
19.77538681030273
 30
0.0
 11
-60.88088989257812
 21
20.10263061523438
 31
0.0
1001
DBPROPERTIES
1002
{
1000
PbThick
1002
}
  0
LINE
  5
115
330
1F
100
AcDbEntity
  8
THICK
100
AcDbLine
 10
-60.88088989257812
 20
20.10263061523438
 30
0.0
 11
-60.44139099121094
 21
20.4002571105957
 31
0.0
1001
DBPROPERTIES
1002
{
1000
PbThick
1002
}
  0
LINE
  5
116
330
1F
100
AcDbEntity
  8
THICK
100
AcDbLine
 10
-60.44139099121094
 20
20.4002571105957
 30
0.0
 11
-59.98760986328125
 21
20.67658042907715
 31
0.0
1001
DBPROPERTIES
1002
{
1000
PbThick
1002
}
  0
LINE
  5
117
330
1F
100
AcDbEntity
  8
THICK
100
AcDbLine
 10
-59.98760986328125
 20
20.67658042907715
 30
0.0
 11
-59.50467681884766
 21
20.93905448913574
 31
0.0
1001
DBPROPERTIES
1002
{
1000
PbThick
1002
}
  0
LINE
  5
118
330
1F
100
AcDbEntity
  8
THICK
100
AcDbLine
 10
-59.50467681884766
 20
20.93905448913574
 30
0.0
 11
-58.99630355834961
 21
21.18256378173828
 31
0.0
1001
DBPROPERTIES
1002
{
1000
PbThick
1002
}
  0
LINE
  5
119
330
1F
100
AcDbEntity
  8
THICK
100
AcDbLine
 10
-58.99630355834961
 20
21.18256378173828
 30
0.0
 11
-58.46691131591797
 21
21.40321922302246
 31
0.0
1001
DBPROPERTIES
1002
{
1000
PbThick
1002
}
  0
LINE
  5
11A
330
1F
100
AcDbEntity
  8
THICK
100
AcDbLine
 10
-58.46691131591797
 20
21.40321922302246
 30
0.0
 11
-57.92127990722656
 21
21.59783172607422
 31
0.0
1001
DBPROPERTIES
1002
{
1000
PbThick
1002
}
  0
LINE
  5
11B
330
1F
100
AcDbEntity
  8
THICK
100
AcDbLine
 10
-57.92127990722656
 20
21.59783172607422
 30
0.0
 11
-57.36472320556641
 21
21.76442337036133
 31
0.0
1001
DBPROPERTIES
1002
{
1000
PbThick
1002
}
  0
LINE
  5
11C
330
1F
100
AcDbEntity
  8
THICK
100
AcDbLine
 10
-57.36472320556641
 20
21.76442337036133
 30
0.0
 11
-56.80317687988281
 21
21.90188407897949
 31
0.0
1001
DBPROPERTIES
1002
{
1000
PbThick
1002
}
  0
LINE
  5
11D
330
1F
100
AcDbEntity
  8
THICK
100
AcDbLine
 10
-56.80317687988281
 20
21.90188407897949
 30
0.0
 11
-56.24308013916016
 21
22.01009941101074
 31
0.0
1001
DBPROPERTIES
1002
{
1000
PbThick
1002
}
  0
LINE
  5
11E
330
1F
100
AcDbEntity
  8
THICK
100
AcDbLine
 10
-56.24308013916016
 20
22.01009941101074
 30
0.0
 11
-55.68965911865234
 21
22.09030532836914
 31
0.0
1001
DBPROPERTIES
1002
{
1000
PbThick
1002
}
  0
LINE
  5
11F
330
1F
100
AcDbEntity
  8
THICK
100
AcDbLine
 10
-55.68965911865234
 20
22.09030532836914
 30
0.0
 11
-55.11459732055664
 21
22.14676666259766
 31
0.0
1001
DBPROPERTIES
1002
{
1000
PbThick
1002
}
  0
LINE
  5
120
330
1F
100
AcDbEntity
  8
THICK
100
AcDbLine
 10
-55.11459732055664
 20
22.14676666259766
 30
0.0
 11
-54.51140213012695
 21
22.17802047729492
 31
0.0
1001
DBPROPERTIES
1002
{
1000
PbThick
1002
}
  0
LINE
  5
121
330
1F
100
AcDbEntity
  8
THICK
100
AcDbLine
 10
-54.51140213012695
 20
22.17802047729492
 30
0.0
 11
-53.88758087158203
 21
22.18142890930176
 31
0.0
1001
DBPROPERTIES
1002
{
1000
PbThick
1002
}
  0
LINE
  5
122
330
1F
100
AcDbEntity
  8
THICK
100
AcDbLine
 10
-53.88758087158203
 20
22.18142890930176
 30
0.0
 11
-53.2511100769043
 21
22.15585708618164
 31
0.0
1001
DBPROPERTIES
1002
{
1000
PbThick
1002
}
  0
LINE
  5
123
330
1F
100
AcDbEntity
  8
THICK
100
AcDbLine
 10
-53.2511100769043
 20
22.15585708618164
 30
0.0
 11
-52.6102294921875
 21
22.10146713256836
 31
0.0
1001
DBPROPERTIES
1002
{
1000
PbThick
1002
}
  0
LINE
  5
124
330
1F
100
AcDbEntity
  8
THICK
100
AcDbLine
 10
-52.6102294921875
 20
22.10146713256836
 30
0.0
 11
-51.97372055053711
 21
22.01986312866211
 31
0.0
1001
DBPROPERTIES
1002
{
1000
PbThick
1002
}
  0
LINE
  5
125
330
1F
100
AcDbEntity
  8
THICK
100
AcDbLine
 10
-51.97372055053711
 20
22.01986312866211
 30
0.0
 11
-51.35073471069336
 21
21.91404914855957
 31
0.0
1001
DBPROPERTIES
1002
{
1000
PbThick
1002
}
  0
LINE
  5
126
330
1F
100
AcDbEntity
  8
THICK
100
AcDbLine
 10
-51.35073471069336
 20
21.91404914855957
 30
0.0
 11
-50.7386474609375
 21
21.78553581237793
 31
0.0
1001
DBPROPERTIES
1002
{
1000
PbThick
1002
}
  0
LINE
  5
127
330
1F
100
AcDbEntity
  8
THICK
100
AcDbLine
 10
-50.7386474609375
 20
21.78553581237793
 30
0.0
 11
-50.10200881958008
 21
21.62648773193359
 31
0.0
1001
DBPROPERTIES
1002
{
1000
PbThick
1002
}
  0
LINE
  5
128
330
1F
100
AcDbEntity
  8
THICK
100
AcDbLine
 10
-50.10200881958008
 20
21.62648773193359
 30
0.0
 11
-49.44652938842773
 21
21.43584442138672
 31
0.0
1001
DBPROPERTIES
1002
{
1000
PbThick
1002
}
  0
LINE
  5
129
330
1F
100
AcDbEntity
  8
THICK
100
AcDbLine
 10
-49.44652938842773
 20
21.43584442138672
 30
0.0
 11
-48.78233337402344
 21
21.21508979797363
 31
0.0
1001
DBPROPERTIES
1002
{
1000
PbThick
1002
}
  0
LINE
  5
12A
330
1F
100
AcDbEntity
  8
THICK
100
AcDbLine
 10
-48.78233337402344
 20
21.21508979797363
 30
0.0
 11
-48.11946105957031
 21
20.96688652038574
 31
0.0
1001
DBPROPERTIES
1002
{
1000
PbThick
1002
}
  0
LINE
  5
12B
330
1F
100
AcDbEntity
  8
THICK
100
AcDbLine
 10
-48.11946105957031
 20
20.96688652038574
 30
0.0
 11
-47.46791839599609
 21
20.69570159912109
 31
0.0
1001
DBPROPERTIES
1002
{
1000
PbThick
1002
}
  0
LINE
  5
12C
330
1F
100
AcDbEntity
  8
THICK
100
AcDbLine
 10
-47.46791839599609
 20
20.69570159912109
 30
0.0
 11
-46.83772277832031
 21
20.4072265625
 31
0.0
1001
DBPROPERTIES
1002
{
1000
PbThick
1002
}
  0
LINE
  5
12D
330
1F
100
AcDbEntity
  8
THICK
100
AcDbLine
 10
-46.83772277832031
 20
20.4072265625
 30
0.0
 11
-46.23290252685547
 21
20.10574150085449
 31
0.0
1001
DBPROPERTIES
1002
{
1000
PbThick
1002
}
  0
LINE
  5
12E
330
1F
100
AcDbEntity
  8
THICK
100
AcDbLine
 10
-46.23290252685547
 20
20.10574150085449
 30
0.0
 11
-45.61727905273438
 21
19.77339553833008
 31
0.0
1001
DBPROPERTIES
1002
{
1000
PbThick
1002
}
  0
LINE
  5
12F
330
1F
100
AcDbEntity
  8
THICK
100
AcDbLine
 10
-45.61727905273438
 20
19.77339553833008
 30
0.0
 11
-44.99124526977539
 21
19.40817451477051
 31
0.0
1001
DBPROPERTIES
1002
{
1000
PbThick
1002
}
  0
LINE
  5
130
330
1F
100
AcDbEntity
  8
THICK
100
AcDbLine
 10
-44.99124526977539
 20
19.40817451477051
 30
0.0
 11
-44.36481475830078
 21
19.01411247253418
 31
0.0
1001
DBPROPERTIES
1002
{
1000
PbThick
1002
}
  0
LINE
  5
131
330
1F
100
AcDbEntity
  8
THICK
100
AcDbLine
 10
-44.36481475830078
 20
19.01411247253418
 30
0.0
 11
-43.74753952026367
 21
18.5963020324707
 31
0.0
1001
DBPROPERTIES
1002
{
1000
PbThick
1002
}
  0
LINE
  5
132
330
1F
100
AcDbEntity
  8
THICK
100
AcDbLine
 10
-43.74753952026367
 20
18.5963020324707
 30
0.0
 11
-43.14820098876953
 21
18.16110610961914
 31
0.0
1001
DBPROPERTIES
1002
{
1000
PbThick
1002
}
  0
LINE
  5
133
330
1F
100
AcDbEntity
  8
THICK
100
AcDbLine
 10
-43.14820098876953
 20
18.16110610961914
 30
0.0
 11
-42.57521438598633
 21
17.71592140197754
 31
0.0
1001
DBPROPERTIES
1002
{
1000
PbThick
1002
}
  0
ARC
  5
134
330
1F
100
AcDbEntity
  8
THICK
100
AcDbCircle
 10
0.00000000000001
 20
0.0
 30
0.0
 40
46.11401780391889
100
AcDbArc
 50
89.99998127603165
 51
157.4073772533623
1001
DBPROPERTIES
1002
{
1000
PbThick
1002
}
  0
ARC
  5
135
330
1F
100
AcDbEntity
  8
THICK
100
AcDbCircle
 10
0.00000000000001
 20
0.0
 30
0.0
 40
46.11401780391889
100
AcDbArc
 50
202.5926227466377
 51
270.0000187239684
1001
DBPROPERTIES
1002
{
1000
PbThick
1002
}
  0
LINE
  5
136
330
1F
100
AcDbEntity
  8
HIDDEN
100
AcDbLine
 10
-276.3199999999999
 20
-0.0000000000000063
 30
0.0
 11
-276.3199999999999
 21
99.0
 31
0.0
1001
DBPROPERTIES
1002
{
1000
PbHidd
1002
}
  0
LINE
  5
137
330
1F
100
AcDbEntity
  8
HIDDEN
100
AcDbLine
 10
-280.3199999999999
 20
99.0
 30
0.0
 11
-280.3199999999999
 21
-0.0000000000000058
 31
0.0
1001
DBPROPERTIES
1002
{
1000
PbHidd
1002
}
  0
LINE
  5
138
330
1F
100
AcDbEntity
  8
HIDDEN
100
AcDbLine
 10
280.32
 20
0.0000000000000061
 30
0.0
 11
280.32
 21
99.0
 31
0.0
1001
DBPROPERTIES
1002
{
1000
PbHidd
1002
}
  0
LINE
  5
139
330
1F
100
AcDbEntity
  8
HIDDEN
100
AcDbLine
 10
276.32
 20
99.0
 30
0.0
 11
276.32
 21
0.0000000000000061
 31
0.0
1001
DBPROPERTIES
1002
{
1000
PbHidd
1002
}
  0
LINE
  5
13A
330
1F
100
AcDbEntity
  8
HIDDEN
100
AcDbLine
 10
-227.2
 20
-67.41476099490377
 30
0.0
 11
-223.2
 21
-67.41476099490377
 31
0.0
1001
DBPROPERTIES
1002
{
1000
PbHidd
1002
}
  0
LINE
  5
13B
330
1F
100
AcDbEntity
  8
HIDDEN
100
AcDbLine
 10
-223.2
 20
-73.15811643283334
 30
0.0
 11
-227.2
 21
-73.15811643283334
 31
0.0
1001
DBPROPERTIES
1002
{
1000
PbHidd
1002
}
  0
LINE
  5
13C
330
1F
100
AcDbEntity
  8
HIDDEN
100
AcDbLine
 10
-227.2
 20
-91.54075595056007
 30
0.0
 11
-223.2
 21
-91.54075595056007
 31
0.0
1001
DBPROPERTIES
1002
{
1000
PbHidd
1002
}
  0
LINE
  5
13D
330
1F
100
AcDbEntity
  8
HIDDEN
100
AcDbLine
 10
-223.2
 20
-93.71974178368184
 30
0.0
 11
-227.2
 21
-93.71974178368184
 31
0.0
1001
DBPROPERTIES
1002
{
1000
PbHidd
1002
}
  0
LINE
  5
13E
330
1F
100
AcDbEntity
  8
HIDDEN
100
AcDbLine
 10
-227.2
 20
-98.95751613697668
 30
0.0
 11
-223.2
 21
-98.95751613697668
 31
0.0
1001
DBPROPERTIES
1002
{
1000
PbHidd
1002
}
  0
LINE
  5
13F
330
1F
100
AcDbEntity
  8
HIDDEN
100
AcDbLine
 10
-201.5400779044751
 20
-0.0000000000000253
 30
0.0
 11
-201.5400779044751
 21
99.00000000000003
 31
0.0
1001
DBPROPERTIES
1002
{
1000
PbHidd
1002
}
  0
LINE
  5
140
330
1F
100
AcDbEntity
  8
HIDDEN
100
AcDbLine
 10
-227.2
 20
-135.0
 30
0.0
 11
-227.2
 21
-135.0
 31
0.0
1001
DBPROPERTIES
1002
{
1000
PbHidd
1002
}
  0
LINE
  5
141
330
1F
100
AcDbEntity
  8
HIDDEN
100
AcDbLine
 10
-223.2
 20
-149.6969384566991
 30
0.0
 11
-223.2
 21
-149.6969384566991
 31
0.0
1001
DBPROPERTIES
1002
{
1000
PbHidd
1002
}
  0
LINE
  5
142
330
1F
100
AcDbEntity
  8
HIDDEN
100
AcDbLine
 10
-227.2
 20
-135.0
 30
0.0
 11
-227.2
 21
-135.0
 31
0.0
1001
DBPROPERTIES
1002
{
1000
PbHidd
1002
}
  0
LINE
  5
143
330
1F
100
AcDbEntity
  8
HIDDEN
100
AcDbLine
 10
-223.2
 20
-149.6969384566991
 30
0.0
 11
-223.2
 21
-149.6969384566991
 31
0.0
1001
DBPROPERTIES
1002
{
1000
PbHidd
1002
}
  0
LINE
  5
144
330
1F
100
AcDbEntity
  8
HIDDEN
100
AcDbLine
 10
-223.2
 20
0.0000000000000071
 30
0.0
 11
-223.2
 21
0.0000000000000071
 31
0.0
1001
DBPROPERTIES
1002
{
1000
PbHidd
1002
}
  0
LINE
  5
145
330
1F
100
AcDbEntity
  8
HIDDEN
100
AcDbLine
 10
-215.8399999999999
 20
0.0000000000000071
 30
0.0
 11
-215.8399999999999
 21
0.0000000000000071
 31
0.0
1001
DBPROPERTIES
1002
{
1000
PbHidd
1002
}
  0
LINE
  5
146
330
1F
100
AcDbEntity
  8
HIDDEN
100
AcDbLine
 10
-227.2
 20
-135.0
 30
0.0
 11
-227.2
 21
-135.0
 31
0.0
1001
DBPROPERTIES
1002
{
1000
PbHidd
1002
}
  0
LINE
  5
147
330
1F
100
AcDbEntity
  8
HIDDEN
100
AcDbLine
 10
-223.2
 20
-149.6969384566991
 30
0.0
 11
-223.2
 21
-149.6969384566991
 31
0.0
1001
DBPROPERTIES
1002
{
1000
PbHidd
1002
}
  0
LINE
  5
148
330
1F
100
AcDbEntity
  8
HIDDEN
100
AcDbLine
 10
201.5400779044751
 20
99.0
 30
0.0
 11
201.5400779044751
 21
0.0000000000000061
 31
0.0
1001
DBPROPERTIES
1002
{
1000
PbHidd
1002
}
  0
LINE
  5
149
330
1F
100
AcDbEntity
  8
HIDDEN
100
AcDbLine
 10
223.2
 20
-98.95751613697668
 30
0.0
 11
227.2
 21
-98.95751613697668
 31
0.0
1001
DBPROPERTIES
1002
{
1000
PbHidd
1002
}
  0
LINE
  5
14A
330
1F
100
AcDbEntity
  8
HIDDEN
100
AcDbLine
 10
227.2
 20
-93.71974178368184
 30
0.0
 11
223.2
 21
-93.71974178368184
 31
0.0
1001
DBPROPERTIES
1002
{
1000
PbHidd
1002
}
  0
LINE
  5
14B
330
1F
100
AcDbEntity
  8
HIDDEN
100
AcDbLine
 10
223.2
 20
-91.54075595056007
 30
0.0
 11
227.2
 21
-91.54075595056007
 31
0.0
1001
DBPROPERTIES
1002
{
1000
PbHidd
1002
}
  0
LINE
  5
14C
330
1F
100
AcDbEntity
  8
HIDDEN
100
AcDbLine
 10
227.2
 20
-73.15811643283334
 30
0.0
 11
223.2
 21
-73.15811643283334
 31
0.0
1001
DBPROPERTIES
1002
{
1000
PbHidd
1002
}
  0
LINE
  5
14D
330
1F
100
AcDbEntity
  8
HIDDEN
100
AcDbLine
 10
223.2
 20
-67.41476099490377
 30
0.0
 11
227.2
 21
-67.41476099490377
 31
0.0
1001
DBPROPERTIES
1002
{
1000
PbHidd
1002
}
  0
LINE
  5
14E
330
1F
100
AcDbEntity
  8
HIDDEN
100
AcDbLine
 10
223.2
 20
-149.6969384566991
 30
0.0
 11
223.2
 21
-149.6969384566991
 31
0.0
1001
DBPROPERTIES
1002
{
1000
PbHidd
1002
}
  0
LINE
  5
14F
330
1F
100
AcDbEntity
  8
THICK
100
AcDbLine
 10
227.2
 20
-67.41476099490377
 30
0.0
 11
227.2
 21
-135.0
 31
0.0
1001
DBPROPERTIES
1002
{
1000
PbThick
1002
}
  0
LINE
  5
150
330
1F
100
AcDbEntity
  8
HIDDEN
100
AcDbLine
 10
227.2
 20
-135.0
 30
0.0
 11
227.2
 21
-135.0
 31
0.0
1001
DBPROPERTIES
1002
{
1000
PbHidd
1002
}
  0
ARC
  5
151
330
1F
100
AcDbEntity
  8
THICK
100
AcDbCircle
 10
198.2
 20
-135.0
 30
0.0
 40
29.0
100
AcDbArc
 50
329.5496996115363
 51
0.0
1001
DBPROPERTIES
1002
{
1000
PbThick
1002
}
  0
LINE
  5
152
330
1F
100
AcDbEntity
  8
HIDDEN
100
AcDbLine
 10
223.2
 20
0.0000000000000071
 30
0.0
 11
223.2
 21
0.0000000000000071
 31
0.0
1001
DBPROPERTIES
1002
{
1000
PbHidd
1002
}
  0
LINE
  5
153
330
1F
100
AcDbEntity
  8
THICK
100
AcDbLine
 10
223.2
 20
-149.6969384566991
 30
0.0
 11
223.2
 21
0.0000000000000284
 31
0.0
1001
DBPROPERTIES
1002
{
1000
PbThick
1002
}
  0
LINE
  5
154
330
1F
100
AcDbEntity
  8
HIDDEN
100
AcDbLine
 10
223.2
 20
-149.6969384566991
 30
0.0
 11
223.2
 21
-149.6969384566991
 31
0.0
1001
DBPROPERTIES
1002
{
1000
PbHidd
1002
}
  0
LINE
  5
155
330
1F
100
AcDbEntity
  8
HIDDEN
100
AcDbLine
 10
215.84
 20
0.0000000000000071
 30
0.0
 11
215.84
 21
0.0000000000000071
 31
0.0
1001
DBPROPERTIES
1002
{
1000
PbHidd
1002
}
  0
LINE
  5
156
330
1F
100
AcDbEntity
  8
HIDDEN
100
AcDbLine
 10
215.84
 20
0.0000000000000071
 30
0.0
 11
215.84
 21
0.0000000000000071
 31
0.0
1001
DBPROPERTIES
1002
{
1000
PbHidd
1002
}
  0
LINE
  5
157
330
1F
100
AcDbEntity
  8
HIDDEN
100
AcDbLine
 10
215.84
 20
-127.5
 30
0.0
 11
215.84
 21
-127.5
 31
0.0
1001
DBPROPERTIES
1002
{
1000
PbHidd
1002
}
  0
LINE
  5
158
330
1F
100
AcDbEntity
  8
THICK
100
AcDbLine
 10
215.84
 20
0.0000000000000426
 30
0.0
 11
215.84
 21
-127.5
 31
0.0
1001
DBPROPERTIES
1002
{
1000
PbThick
1002
}
  0
LINE
  5
159
330
1F
100
AcDbEntity
  8
HIDDEN
100
AcDbLine
 10
223.2
 20
0.0000000000000071
 30
0.0
 11
223.2
 21
0.0000000000000071
 31
0.0
1001
DBPROPERTIES
1002
{
1000
PbHidd
1002
}
  0
LINE
  5
15A
330
1F
100
AcDbEntity
  8
THICK
100
AcDbLine
 10
223.2
 20
0.0000000000000073
 30
0.0
 11
215.84
 21
0.0000000000000073
 31
0.0
1001
DBPROPERTIES
1002
{
1000
PbThick
1002
}
  0
LINE
  5
15B
330
1F
100
AcDbEntity
  8
HIDDEN
100
AcDbLine
 10
223.2
 20
-149.6969384566991
 30
0.0
 11
223.2
 21
-149.6969384566991
 31
0.0
1001
DBPROPERTIES
1002
{
1000
PbHidd
1002
}
  0
LINE
  5
15C
330
1F
100
AcDbEntity
  8
HIDDEN
100
AcDbLine
 10
227.2
 20
-135.0
 30
0.0
 11
227.2
 21
-135.0
 31
0.0
1001
DBPROPERTIES
1002
{
1000
PbHidd
1002
}
  0
LINE
  5
15D
330
1F
100
AcDbEntity
  8
HIDDEN
100
AcDbLine
 10
-223.2
 20
0.0000000000000071
 30
0.0
 11
-223.2
 21
0.0000000000000071
 31
0.0
1001
DBPROPERTIES
1002
{
1000
PbHidd
1002
}
  0
LINE
  5
15E
330
1F
100
AcDbEntity
  8
HIDDEN
100
AcDbLine
 10
-223.2
 20
-149.6969384566991
 30
0.0
 11
-223.2
 21
-149.6969384566991
 31
0.0
1001
DBPROPERTIES
1002
{
1000
PbHidd
1002
}
  0
LINE
  5
15F
330
1F
100
AcDbEntity
  8
THICK
100
AcDbLine
 10
-223.2
 20
0.0000000000000284
 30
0.0
 11
-223.2
 21
-149.6969384566991
 31
0.0
1001
DBPROPERTIES
1002
{
1000
PbThick
1002
}
  0
LINE
  5
160
330
1F
100
AcDbEntity
  8
THICK
100
AcDbLine
 10
-227.2
 20
-135.0
 30
0.0
 11
-227.2
 21
-67.41476099490377
 31
0.0
1001
DBPROPERTIES
1002
{
1000
PbThick
1002
}
  0
ARC
  5
161
330
1F
100
AcDbEntity
  8
THICK
100
AcDbCircle
 10
-198.2
 20
-135.0
 30
0.0
 40
29.0
100
AcDbArc
 50
180.0000198478428
 51
210.4503378364004
1001
DBPROPERTIES
1002
{
1000
PbThick
1002
}
  0
LINE
  5
162
330
1F
100
AcDbEntity
  8
HIDDEN
100
AcDbLine
 10
-215.8399999999999
 20
0.0000000000000071
 30
0.0
 11
-215.8399999999999
 21
0.0000000000000071
 31
0.0
1001
DBPROPERTIES
1002
{
1000
PbHidd
1002
}
  0
LINE
  5
163
330
1F
100
AcDbEntity
  8
THICK
100
AcDbLine
 10
-215.8399999999999
 20
0.0000000000000073
 30
0.0
 11
-223.2
 21
0.0000000000000073
 31
0.0
1001
DBPROPERTIES
1002
{
1000
PbThick
1002
}
  0
ELLIPSE
  5
164
330
1F
100
AcDbEntity
  8
THICK
100
AcDbEllipse
 10
-198.2
 20
-135.0
 30
0.0
 11
2.923374314155248E-15
 21
-29.0
 31
0.0
210
0.0
220
0.0
230
1.0
 40
1.0
 41
-1.039338088856046
 42
0.0
1001
DBPROPERTIES
1002
{
1000
PbThick
1002
}
  0
LINE
  5
165
330
1F
100
AcDbEntity
  8
THICK
100
AcDbLine
 10
198.2
 20
-164.0
 30
0.0
 11
-198.2
 21
-164.0
 31
0.0
1001
DBPROPERTIES
1002
{
1000
PbThick
1002
}
  0
ELLIPSE
  5
166
330
1F
100
AcDbEntity
  8
THICK
100
AcDbEllipse
 10
198.2
 20
-135.0
 30
0.0
 11
1.461687157077624E-15
 21
-29.0
 31
0.0
210
0.0
220
0.0
230
1.0
 40
1.0
 41
0.0
 42
1.039338088856045
1001
DBPROPERTIES
1002
{
1000
PbThick
1002
}
  0
ELLIPSE
  5
167
330
1F
100
AcDbEntity
  8
THICK
100
AcDbEllipse
 10
201.34
 20
-127.5
 30
0.0
 11
7.308435785388119E-16
 21
-14.5
 31
0.0
210
0.0
220
0.0
230
1.0
 40
1.0
 41
0.3735589221631863
 42
1.570796326794896
1001
DBPROPERTIES
1002
{
1000
PbThick
1002
}
  0
LINE
  5
168
330
1F
100
AcDbEntity
  8
THICK
100
AcDbLine
 10
206.6315026221292
 20
-141.0
 30
0.0
 11
-206.6315026221292
 21
-141.0
 31
0.0
1001
DBPROPERTIES
1002
{
1000
PbThick
1002
}
  0
ELLIPSE
  5
169
330
1F
100
AcDbEntity
  8
THICK
100
AcDbEllipse
 10
-201.34
 20
-127.5
 30
0.0
 11
1.461687157077624E-15
 21
-14.5
 31
0.0
210
0.0
220
0.0
230
1.0
 40
1.0
 41
-1.570796326794896
 42
-0.3735589221631885
1001
DBPROPERTIES
1002
{
1000
PbThick
1002
}
  0
LINE
  5
16A
330
1F
100
AcDbEntity
  8
THICK
100
AcDbLine
 10
-215.8399999999999
 20
-127.5
 30
0.0
 11
-215.8399999999999
 21
0.0000000000000426
 31
0.0
1001
DBPROPERTIES
1002
{
1000
PbThick
1002
}
  0
LINE
  5
16B
330
1F
100
AcDbEntity
  8
HIDDEN
100
AcDbLine
 10
-223.2
 20
-149.6969384566991
 30
0.0
 11
-223.2
 21
-149.6969384566991
 31
0.0
1001
DBPROPERTIES
1002
{
1000
PbHidd
1002
}
  0
LINE
  5
16C
330
1F
100
AcDbEntity
  8
HIDDEN
100
AcDbLine
 10
-227.2
 20
-135.0
 30
0.0
 11
-227.2
 21
-135.0
 31
0.0
1001
DBPROPERTIES
1002
{
1000
PbHidd
1002
}
  0
LINE
  5
16D
330
1F
100
AcDbEntity
  8
HIDDEN
100
AcDbLine
 10
-227.2
 20
-135.0
 30
0.0
 11
-227.2
 21
-135.0
 31
0.0
1001
DBPROPERTIES
1002
{
1000
PbHidd
1002
}
  0
LINE
  5
16E
330
1F
100
AcDbEntity
  8
HIDDEN
100
AcDbLine
 10
-223.2
 20
-149.6969384566991
 30
0.0
 11
-223.2
 21
-149.6969384566991
 31
0.0
1001
DBPROPERTIES
1002
{
1000
PbHidd
1002
}
  0
LINE
  5
16F
330
1F
100
AcDbEntity
  8
HIDDEN
100
AcDbLine
 10
-198.2
 20
-164.0
 30
0.0
 11
-198.2
 21
-164.0
 31
0.0
1001
DBPROPERTIES
1002
{
1000
PbHidd
1002
}
  0
LINE
  5
170
330
1F
100
AcDbEntity
  8
HIDDEN
100
AcDbLine
 10
-222.7102019575523
 20
-150.5
 30
0.0
 11
-222.7102019575523
 21
-150.5
 31
0.0
1001
DBPROPERTIES
1002
{
1000
PbHidd
1002
}
  0
LINE
  5
171
330
1F
100
AcDbEntity
  8
HIDDEN
100
AcDbLine
 10
-198.2
 20
-164.0
 30
0.0
 11
-198.2
 21
-164.0
 31
0.0
1001
DBPROPERTIES
1002
{
1000
PbHidd
1002
}
  0
LINE
  5
172
330
1F
100
AcDbEntity
  8
HIDDEN
100
AcDbLine
 10
-222.7102019575523
 20
-150.5
 30
0.0
 11
-222.7102019575523
 21
-150.5
 31
0.0
1001
DBPROPERTIES
1002
{
1000
PbHidd
1002
}
  0
LINE
  5
173
330
1F
100
AcDbEntity
  8
HIDDEN
100
AcDbLine
 10
-198.2
 20
-164.0
 30
0.0
 11
-198.2
 21
-164.0
 31
0.0
1001
DBPROPERTIES
1002
{
1000
PbHidd
1002
}
  0
LINE
  5
174
330
1F
100
AcDbEntity
  8
HIDDEN
100
AcDbLine
 10
198.2
 20
-164.0
 30
0.0
 11
198.2
 21
-164.0
 31
0.0
1001
DBPROPERTIES
1002
{
1000
PbHidd
1002
}
  0
LINE
  5
175
330
1F
100
AcDbEntity
  8
HIDDEN
100
AcDbLine
 10
222.7102019575523
 20
-150.5
 30
0.0
 11
222.7102019575523
 21
-150.5
 31
0.0
1001
DBPROPERTIES
1002
{
1000
PbHidd
1002
}
  0
LINE
  5
176
330
1F
100
AcDbEntity
  8
HIDDEN
100
AcDbLine
 10
198.2
 20
-164.0
 30
0.0
 11
198.2
 21
-164.0
 31
0.0
1001
DBPROPERTIES
1002
{
1000
PbHidd
1002
}
  0
LINE
  5
177
330
1F
100
AcDbEntity
  8
HIDDEN
100
AcDbLine
 10
222.7102019575523
 20
-150.5
 30
0.0
 11
222.7102019575523
 21
-150.5
 31
0.0
1001
DBPROPERTIES
1002
{
1000
PbHidd
1002
}
  0
LINE
  5
178
330
1F
100
AcDbEntity
  8
HIDDEN
100
AcDbLine
 10
198.2
 20
-164.0
 30
0.0
 11
198.2
 21
-164.0
 31
0.0
1001
DBPROPERTIES
1002
{
1000
PbHidd
1002
}
  0
LINE
  5
179
330
1F
100
AcDbEntity
  8
HIDDEN
100
AcDbLine
 10
223.2
 20
-149.6969384566991
 30
0.0
 11
223.2
 21
-149.6969384566991
 31
0.0
1001
DBPROPERTIES
1002
{
1000
PbHidd
1002
}
  0
LINE
  5
17A
330
1F
100
AcDbEntity
  8
HIDDEN
100
AcDbLine
 10
227.2
 20
-135.0
 30
0.0
 11
227.2
 21
-135.0
 31
0.0
1001
DBPROPERTIES
1002
{
1000
PbHidd
1002
}
  0
LINE
  5
17B
330
1F
100
AcDbEntity
  8
HIDDEN
100
AcDbLine
 10
223.2
 20
-149.6969384566991
 30
0.0
 11
223.2
 21
-149.6969384566991
 31
0.0
1001
DBPROPERTIES
1002
{
1000
PbHidd
1002
}
  0
LINE
  5
17C
330
1F
100
AcDbEntity
  8
HIDDEN
100
AcDbLine
 10
227.2
 20
-135.0
 30
0.0
 11
227.2
 21
-135.0
 31
0.0
1001
DBPROPERTIES
1002
{
1000
PbHidd
1002
}
  0
LINE
  5
17D
330
1F
100
AcDbEntity
  8
HIDDEN
100
AcDbLine
 10
223.2
 20
-149.6969384566991
 30
0.0
 11
223.2
 21
-149.6969384566991
 31
0.0
1001
DBPROPERTIES
1002
{
1000
PbHidd
1002
}
  0
LINE
  5
17E
330
1F
100
AcDbEntity
  8
HIDDEN
100
AcDbLine
 10
227.2
 20
-135.0
 30
0.0
 11
227.2
 21
-135.0
 31
0.0
1001
DBPROPERTIES
1002
{
1000
PbHidd
1002
}
  0
LINE
  5
17F
330
1F
100
AcDbEntity
  8
HIDDEN
100
AcDbLine
 10
-222.7102019575523
 20
-150.5
 30
0.0
 11
222.7102019575523
 21
-150.5
 31
0.0
1001
DBPROPERTIES
1002
{
1000
PbHidd
1002
}
  0
LINE
  5
180
330
1F
100
AcDbEntity
  8
HIDDEN
100
AcDbLine
 10
-215.8399999999999
 20
-127.5
 30
0.0
 11
-215.8399999999999
 21
-127.5
 31
0.0
1001
DBPROPERTIES
1002
{
1000
PbHidd
1002
}
  0
LINE
  5
181
330
1F
100
AcDbEntity
  8
HIDDEN
100
AcDbLine
 10
206.6315026221292
 20
-141.0
 30
0.0
 11
206.6315026221292
 21
-141.0
 31
0.0
1001
DBPROPERTIES
1002
{
1000
PbHidd
1002
}
  0
LINE
  5
182
330
1F
100
AcDbEntity
  8
HIDDEN
100
AcDbLine
 10
-206.6315026221292
 20
-141.0
 30
0.0
 11
-206.6315026221292
 21
-141.0
 31
0.0
1001
DBPROPERTIES
1002
{
1000
PbHidd
1002
}
  0
LINE
  5
183
330
1F
100
AcDbEntity
  8
HIDDEN
100
AcDbLine
 10
-184.6
 20
-0.4052457030670673
 30
0.0
 11
-184.6
 21
-0.0000000000000101
 31
0.0
1001
DBPROPERTIES
1002
{
1000
PbHidd
1002
}
  0
ELLIPSE
  5
184
330
1F
100
AcDbEntity
  8
HIDDEN
100
AcDbEllipse
 10
-201.2721359549996
 20
-0.0000000000000032
 30
0.0
 11
-26.21649089774187
 21
-38.78099455873142
 31
0.0
210
0.0
220
0.0
230
1.0
 40
0.3056146845806993
 41
1.764296035537547
 42
1.774529691511356
1001
DBPROPERTIES
1002
{
1000
PbHidd
1002
}
  0
LINE
  5
185
330
1F
100
AcDbEntity
  8
HIDDEN
100
AcDbLine
 10
-184.6
 20
0.405245703067001
 30
0.0
 11
-184.6
 21
-0.0000000000000052
 31
0.0
1001
DBPROPERTIES
1002
{
1000
PbHidd
1002
}
  0
ELLIPSE
  5
186
330
1F
100
AcDbEntity
  8
HIDDEN
100
AcDbEllipse
 10
-201.2721359549996
 20
-0.0000000000000032
 30
0.0
 11
26.21649089774186
 21
-38.78099455873143
 31
0.0
210
0.0
220
0.0
230
1.0
 40
0.3056146845806994
 41
1.367062962078436
 42
1.377296618052246
1001
DBPROPERTIES
1002
{
1000
PbHidd
1002
}
  0
ELLIPSE
  5
187
330
1F
100
AcDbEntity
  8
HIDDEN
100
AcDbEllipse
 10
-198.8
 20
-0.0000000000000035
 30
0.0
 11
26.21649089774186
 21
-38.78099455873143
 31
0.0
210
0.0
220
0.0
230
1.0
 40
0.3056146845806994
 41
1.367062962078436
 42
1.479213403165532
1001
DBPROPERTIES
1002
{
1000
PbHidd
1002
}
  0
ELLIPSE
  5
188
330
1F
100
AcDbEntity
  8
HIDDEN
100
AcDbEllipse
 10
-198.8
 20
-0.0000000000000035
 30
0.0
 11
-26.21649089774187
 21
-38.78099455873142
 31
0.0
210
0.0
220
0.0
230
1.0
 40
0.3056146845806993
 41
1.774529691511357
 42
2.064231021601438
1001
DBPROPERTIES
1002
{
1000
PbHidd
1002
}
  0
ELLIPSE
  5
189
330
1F
100
AcDbEntity
  8
HIDDEN
100
AcDbEllipse
 10
-245.0754489782034
 20
0.0000000000000022
 30
0.0
 11
-192.9205879491529
 21
31.85774756660434
 31
0.0
210
0.0
220
0.0
230
1.0
 40
0.1219213458618124
 41
-1.917077389249192
 42
-1.904586181514834
1001
DBPROPERTIES
1002
{
1000
PbHidd
1002
}
  0
ELLIPSE
  5
18A
330
1F
100
AcDbEntity
  8
HIDDEN
100
AcDbEllipse
 10
-201.2721359549996
 20
-0.0000000000000032
 30
0.0
 11
-26.21649089774187
 21
-38.78099455873142
 31
0.0
210
0.0
220
0.0
230
1.0
 40
0.3056146845806993
 41
1.774529691511356
 42
2.076722229335797
1001
DBPROPERTIES
1002
{
1000
PbHidd
1002
}
  0
LINE
  5
18B
330
1F
100
AcDbEntity
  8
HIDDEN
100
AcDbLine
 10
-184.6
 20
-0.0000000000000101
 30
0.0
 11
-184.6
 21
19.54462327069065
 31
0.0
1001
DBPROPERTIES
1002
{
1000
PbHidd
1002
}
  0
LINE
  5
18C
330
1F
100
AcDbEntity
  8
HIDDEN
100
AcDbLine
 10
-184.6000000000001
 20
19.54462327069066
 30
0.0
 11
-175.9442377554542
 21
31.4582579319805
 31
0.0
1001
DBPROPERTIES
1002
{
1000
PbHidd
1002
}
  0
ELLIPSE
  5
18D
330
1F
100
AcDbEntity
  8
HIDDEN
100
AcDbEllipse
 10
-245.0754489782034
 20
0.0000000000000022
 30
0.0
 11
-192.946185140272
 21
11.63423933032699
 31
0.0
210
0.0
220
0.0
230
1.0
 40
0.1961811465503413
 41
-1.925379279749606
 42
-1.912888072015248
1001
DBPROPERTIES
1002
{
1000
PbHidd
1002
}
  0
LINE
  5
18E
330
1F
100
AcDbEntity
  8
HIDDEN
100
AcDbLine
 10
-178.1998736762447
 20
31.75624466484722
 30
0.0
 11
-184.6
 21
22.94722650409882
 31
0.0
1001
DBPROPERTIES
1002
{
1000
PbHidd
1002
}
  0
LINE
  5
18F
330
1F
100
AcDbEntity
  8
HIDDEN
100
AcDbLine
 10
-184.6
 20
22.94722650409882
 30
0.0
 11
-184.6
 21
36.05571812923155
 31
0.0
1001
DBPROPERTIES
1002
{
1000
PbHidd
1002
}
  0
ELLIPSE
  5
190
330
1F
100
AcDbEntity
  8
HIDDEN
100
AcDbEllipse
 10
-198.8
 20
-0.0000000000000035
 30
0.0
 11
26.21649089774189
 21
38.78099455873144
 31
0.0
210
0.0
220
0.0
230
1.0
 40
0.3056146845806991
 41
0.2281912999853535
 42
0.6300430711625316
1001
DBPROPERTIES
1002
{
1000
PbHidd
1002
}
  0
ELLIPSE
  5
191
330
1F
100
AcDbEntity
  8
HIDDEN
100
AcDbEllipse
 10
-245.0754489782034
 20
0.0000000000000022
 30
0.0
 11
-192.9414416601587
 21
-13.79073839076256
 31
0.0
210
0.0
220
0.0
230
1.0
 40
0.1923956436423628
 41
-1.950958888572305
 42
-1.938467680837947
1001
DBPROPERTIES
1002
{
1000
PbHidd
1002
}
  0
ELLIPSE
  5
192
330
1F
100
AcDbEntity
  8
HIDDEN
100
AcDbEllipse
 10
-201.2721359549996
 20
-0.0000000000000032
 30
0.0
 11
26.21649089774189
 21
38.78099455873144
 31
0.0
210
0.0
220
0.0
230
1.0
 40
0.3056146845806991
 41
0.2157000922509964
 42
0.5281262860492462
1001
DBPROPERTIES
1002
{
1000
PbHidd
1002
}
  0
LINE
  5
193
330
1F
100
AcDbEntity
  8
HIDDEN
100
AcDbLine
 10
-184.6
 20
37.53463813424131
 30
0.0
 11
-184.6
 21
39.59999999999999
 31
0.0
1001
DBPROPERTIES
1002
{
1000
PbHidd
1002
}
  0
LINE
  5
194
330
1F
100
AcDbEntity
  8
HIDDEN
100
AcDbLine
 10
-184.6
 20
39.59999999913228
 30
0.0
 11
-184.6
 21
38.79475415119176
 31
0.0
1001
DBPROPERTIES
1002
{
1000
PbHidd
1002
}
  0
ELLIPSE
  5
195
330
1F
100
AcDbEntity
  8
HIDDEN
100
AcDbEllipse
 10
-198.8
 20
-0.0000000000000035
 30
0.0
 11
15.33928817826423
 21
38.38689733617429
 31
0.0
210
0.0
220
0.0
230
1.0
 40
0.6340950937257178
 41
-0.355700960986511
 42
0.0461508101906657
1001
DBPROPERTIES
1002
{
1000
PbHidd
1002
}
  0
ELLIPSE
  5
196
330
1F
100
AcDbEntity
  8
HIDDEN
100
AcDbEllipse
 10
-245.0754489782034
 20
0.0000000000000022
 30
0.0
 11
-192.9236310253544
 21
-33.0980132759694
 31
0.0
210
0.0
220
0.0
230
1.0
 40
0.112693504132748
 41
-1.956539338263542
 42
-1.944048130529184
1001
DBPROPERTIES
1002
{
1000
PbHidd
1002
}
  0
ELLIPSE
  5
197
330
1F
100
AcDbEntity
  8
HIDDEN
100
AcDbEllipse
 10
-201.2721359549996
 20
-0.0000000000000032
 30
0.0
 11
15.33928817826423
 21
38.38689733617429
 31
0.0
210
0.0
220
0.0
230
1.0
 40
0.6340950937257178
 41
-0.3681921687208697
 42
-0.0557659749226186
1001
DBPROPERTIES
1002
{
1000
PbHidd
1002
}
  0
LINE
  5
198
330
1F
100
AcDbEntity
  8
HIDDEN
100
AcDbLine
 10
-184.6
 20
37.78509375253156
 30
0.0
 11
-184.6
 21
26.71551267259279
 31
0.0
1001
DBPROPERTIES
1002
{
1000
PbHidd
1002
}
  0
ELLIPSE
  5
199
330
1F
100
AcDbEntity
  8
HIDDEN
100
AcDbEllipse
 10
-198.8
 20
-0.0000000000000035
 30
0.0
 11
15.33928817826422
 21
-38.3868973361743
 31
0.0
210
0.0
220
0.0
230
1.0
 40
0.634095093725718
 41
1.66125389296022
 42
2.063105664137397
1001
DBPROPERTIES
1002
{
1000
PbHidd
1002
}
  0
ELLIPSE
  5
19A
330
1F
100
AcDbEntity
  8
HIDDEN
100
AcDbEllipse
 10
-245.0754489782034
 20
0.0000000000000022
 30
0.0
 11
192.9595627445814
 21
39.58591551782259
 31
0.0
210
0.0
220
0.0
230
1.0
 40
0.0054730335081041
 41
-1.217998632522243
 42
-1.205507424787885
1001
DBPROPERTIES
1002
{
1000
PbHidd
1002
}
  0
ELLIPSE
  5
19B
330
1F
100
AcDbEntity
  8
HIDDEN
100
AcDbEllipse
 10
-201.2721359549996
 20
-0.0000000000000032
 30
0.0
 11
15.33928817826422
 21
-38.3868973361743
 31
0.0
210
0.0
220
0.0
230
1.0
 40
0.634095093725718
 41
1.648762685225861
 42
1.961188879024112
1001
DBPROPERTIES
1002
{
1000
PbHidd
1002
}
  0
LINE
  5
19C
330
1F
100
AcDbEntity
  8
HIDDEN
100
AcDbLine
 10
-184.6
 20
23.60292782545605
 30
0.0
 11
-184.6
 21
4.431853379941936
 31
0.0
1001
DBPROPERTIES
1002
{
1000
PbHidd
1002
}
  0
ELLIPSE
  5
19D
330
1F
100
AcDbEntity
  8
HIDDEN
100
AcDbEllipse
 10
-195.512054648812
 20
-6.413944794781226
 30
0.0
 11
-18.86671468009555
 21
32.09797218714117
 31
0.0
210
0.0
220
0.0
230
1.0
 40
0.3454915028125264
 41
-1.561412797025778
 42
-0.7306406897257749
1001
DBPROPERTIES
1002
{
1000
PbHidd
1002
}
  0
ELLIPSE
  5
19E
330
1F
100
AcDbEntity
  8
HIDDEN
100
AcDbEllipse
 10
-188.7744267336609
 20
4.163832085713968
 30
0.0
 11
27.5062513624005
 21
27.57623954720813
 31
0.0
210
0.0
220
0.0
230
1.0
 40
0.5656218711632852
 41
1.437912311158925
 42
1.492132097348205
1001
DBPROPERTIES
1002
{
1000
PbHidd
1002
}
  0
ELLIPSE
  5
19F
330
1F
100
AcDbEntity
  8
HIDDEN
100
AcDbEllipse
 10
-193.8940206600621
 20
-5.462888278486075
 30
0.0
 11
19.20363243106907
 21
-32.67117090156872
 31
0.0
210
0.0
220
0.0
230
1.0
 40
0.3454915028125264
 41
1.671786287358844
 42
2.407520183801075
1001
DBPROPERTIES
1002
{
1000
PbHidd
1002
}
  0
ELLIPSE
  5
1A0
330
1F
100
AcDbEntity
  8
HIDDEN
100
AcDbEllipse
 10
-195.512054648812
 20
-2.449908909640963
 30
0.0
 11
-8.156104362875299
 21
36.32782271164221
 31
0.0
210
0.0
220
0.0
230
1.0
 40
0.5590169943749477
 41
-0.9039107085651117
 42
-0.0731386012651103
1001
DBPROPERTIES
1002
{
1000
PbHidd
1002
}
  0
ELLIPSE
  5
1A1
330
1F
100
AcDbEntity
  8
HIDDEN
100
AcDbEllipse
 10
-188.7744267336609
 20
0.9916163535902414
 30
0.0
 11
9.001726967416115
 21
37.89474585190747
 31
0.0
210
0.0
220
0.0
230
1.0
 40
0.7999147975988685
 41
0.6716321899740414
 42
0.7258519761633208
1001
DBPROPERTIES
1002
{
1000
PbHidd
1002
}
  0
ELLIPSE
  5
1A2
330
1F
100
AcDbEntity
  8
HIDDEN
100
AcDbEllipse
 10
-193.8940206600621
 20
-2.086637645638284
 30
0.0
 11
8.301754328184009
 21
-36.97655719103113
 31
0.0
210
0.0
220
0.0
230
1.0
 40
0.5590169943749476
 41
2.329288375819511
 42
3.06502227226174
1001
DBPROPERTIES
1002
{
1000
PbHidd
1002
}
  0
ELLIPSE
  5
1A3
330
1F
100
AcDbEntity
  8
HIDDEN
100
AcDbEllipse
 10
-195.512054648812
 20
2.449908909640956
 30
0.0
 11
8.156104362875311
 21
36.32782271164221
 31
0.0
210
0.0
220
0.0
230
1.0
 40
0.5590169943749473
 41
-0.1401015352173589
 42
0.6906705720826438
1001
DBPROPERTIES
1002
{
1000
PbHidd
1002
}
  0
ELLIPSE
  5
1A4
330
1F
100
AcDbEntity
  8
HIDDEN
100
AcDbEllipse
 10
-188.7744267336609
 20
-2.559363121804723
 30
0.0
 11
-20.358269240167
 21
33.20517617964757
 31
0.0
210
0.0
220
0.0
230
1.0
 40
0.7286674594556769
 41
-0.3165202164150602
 42
-0.2623004302257809
1001
DBPROPERTIES
1002
{
1000
PbHidd
1002
}
  0
ELLIPSE
  5
1A5
330
1F
100
AcDbEntity
  8
HIDDEN
100
AcDbEllipse
 10
-193.8940206600621
 20
2.086637645638276
 30
0.0
 11
-8.301754328184025
 21
-36.97655719103113
 31
0.0
210
0.0
220
0.0
230
1.0
 40
0.5590169943749476
 41
3.093097549167265
 42
3.828831445609493
1001
DBPROPERTIES
1002
{
1000
PbHidd
1002
}
  0
ELLIPSE
  5
1A6
330
1F
100
AcDbEntity
  8
HIDDEN
100
AcDbEllipse
 10
-195.512054648812
 20
6.413944794781226
 30
0.0
 11
18.86671468009557
 21
32.09797218714117
 31
0.0
210
0.0
220
0.0
230
1.0
 40
0.3454915028125264
 41
0.5174005532433069
 42
1.34817266054331
1001
DBPROPERTIES
1002
{
1000
PbHidd
1002
}
  0
ELLIPSE
  5
1A7
330
1F
100
AcDbEntity
  8
HIDDEN
100
AcDbEllipse
 10
-188.7744267336609
 20
-5.132752874223321
 30
0.0
 11
-30.21733026030676
 21
24.57551227372716
 31
0.0
210
0.0
220
0.0
230
1.0
 40
0.3790939182964527
 41
-0.8887660542739461
 42
-0.8345462680846666
1001
DBPROPERTIES
1002
{
1000
PbHidd
1002
}
  0
ELLIPSE
  5
1A8
330
1F
100
AcDbEntity
  8
HIDDEN
100
AcDbEllipse
 10
-193.8940206600621
 20
5.462888278486074
 30
0.0
 11
-19.20363243106909
 21
-32.67117090156871
 31
0.0
210
0.0
220
0.0
230
1.0
 40
0.3454915028125264
 41
-2.532585669551656
 42
-1.796851773109426
1001
DBPROPERTIES
1002
{
1000
PbHidd
1002
}
  0
LINE
  5
1A9
330
1F
100
AcDbEntity
  8
HIDDEN
100
AcDbLine
 10
-184.6
 20
22.94722650409883
 30
0.0
 11
-202.162388811772
 21
-1.225327936709276
 31
0.0
1001
DBPROPERTIES
1002
{
1000
PbHidd
1002
}
  0
ELLIPSE
  5
1AA
330
1F
100
AcDbEntity
  8
HIDDEN
100
AcDbEllipse
 10
-188.7744267336609
 20
-5.745605484542327
 30
0.0
 11
-31.51059245641656
 21
22.89378550223156
 31
0.0
210
0.0
220
0.0
230
1.0
 40
0.1152806147236408
 41
1.217174299676635
 42
1.271394085865914
1001
DBPROPERTIES
1002
{
1000
PbHidd
1002
}
  0
LINE
  5
1AB
330
1F
100
AcDbEntity
  8
HIDDEN
100
AcDbLine
 10
-200.5902464557499
 20
-2.464062854881816
 30
0.0
 11
-184.6
 21
19.54462327069064
 31
0.0
1001
DBPROPERTIES
1002
{
1000
PbHidd
1002
}
  0
ELLIPSE
  5
1AC
330
1F
100
AcDbEntity
  8
HIDDEN
100
AcDbEllipse
 10
-195.512054648812
 20
6.413944794781221
 30
0.0
 11
18.86671468009557
 21
32.09797218714117
 31
0.0
210
0.0
220
0.0
230
1.0
 40
0.3454915028125264
 41
-2.410951963864016
 42
-1.580179856564015
1001
DBPROPERTIES
1002
{
1000
PbHidd
1002
}
  0
ELLIPSE
  5
1AD
330
1F
100
AcDbEntity
  8
HIDDEN
100
AcDbEllipse
 10
-188.7744267336609
 20
-4.163832085713977
 30
0.0
 11
-27.5062513624005
 21
27.57623954720815
 31
0.0
210
0.0
220
0.0
230
1.0
 40
0.5656218711632851
 41
1.649460556241589
 42
1.703680342430868
1001
DBPROPERTIES
1002
{
1000
PbHidd
1002
}
  0
ELLIPSE
  5
1AE
330
1F
100
AcDbEntity
  8
HIDDEN
100
AcDbEllipse
 10
-193.8940206600621
 20
5.462888278486068
 30
0.0
 11
-19.20363243106909
 21
-32.67117090156872
 31
0.0
210
0.0
220
0.0
230
1.0
 40
0.3454915028125264
 41
0.734072469788719
 42
1.469806366230949
1001
DBPROPERTIES
1002
{
1000
PbHidd
1002
}
  0
LINE
  5
1AF
330
1F
100
AcDbEntity
  8
HIDDEN
100
AcDbLine
 10
-184.6
 20
-23.60292782545612
 30
0.0
 11
-184.6
 21
-4.431853379941934
 31
0.0
1001
DBPROPERTIES
1002
{
1000
PbHidd
1002
}
  0
ELLIPSE
  5
1B0
330
1F
100
AcDbEntity
  8
HIDDEN
100
AcDbEllipse
 10
-195.512054648812
 20
2.449908909640955
 30
0.0
 11
8.156104362875306
 21
36.32782271164221
 31
0.0
210
0.0
220
0.0
230
1.0
 40
0.5590169943749476
 41
-3.068454052324684
 42
-2.237681945024681
1001
DBPROPERTIES
1002
{
1000
PbHidd
1002
}
  0
ELLIPSE
  5
1B1
330
1F
100
AcDbEntity
  8
HIDDEN
100
AcDbEllipse
 10
-188.7744267336609
 20
-0.9916163535902499
 30
0.0
 11
-9.001726967416099
 21
37.89474585190747
 31
0.0
210
0.0
220
0.0
230
1.0
 40
0.7999147975988686
 41
2.415740677426472
 42
2.469960463615752
1001
DBPROPERTIES
1002
{
1000
PbHidd
1002
}
  0
ELLIPSE
  5
1B2
330
1F
100
AcDbEntity
  8
HIDDEN
100
AcDbEllipse
 10
-193.8940206600621
 20
2.086637645638274
 30
0.0
 11
-8.301754328184019
 21
-36.97655719103115
 31
0.0
210
0.0
220
0.0
230
1.0
 40
0.5590169943749475
 41
0.0765703813280528
 42
0.8123042777702827
1001
DBPROPERTIES
1002
{
1000
PbHidd
1002
}
  0
LINE
  5
1B3
330
1F
100
AcDbEntity
  8
HIDDEN
100
AcDbLine
 10
-184.6
 20
-37.78509375253157
 30
0.0
 11
-184.6
 21
-26.7155126725928
 31
0.0
1001
DBPROPERTIES
1002
{
1000
PbHidd
1002
}
  0
ELLIPSE
  5
1B4
330
1F
100
AcDbEntity
  8
HIDDEN
100
AcDbEllipse
 10
-195.512054648812
 20
-2.449908909640965
 30
0.0
 11
-8.156104362875308
 21
36.32782271164221
 31
0.0
210
0.0
220
0.0
230
1.0
 40
0.5590169943749476
 41
2.45092208150715
 42
3.281694188807151
1001
DBPROPERTIES
1002
{
1000
PbHidd
1002
}
  0
ELLIPSE
  5
1B5
330
1F
100
AcDbEntity
  8
HIDDEN
100
AcDbEllipse
 10
-188.7744267336609
 20
2.559363121804713
 30
0.0
 11
20.35826924016703
 21
33.20517617964759
 31
0.0
210
0.0
220
0.0
230
1.0
 40
0.7286674594556767
 41
-2.879292223364012
 42
-2.825072437174732
1001
DBPROPERTIES
1002
{
1000
PbHidd
1002
}
  0
ELLIPSE
  5
1B6
330
1F
100
AcDbEntity
  8
HIDDEN
100
AcDbEllipse
 10
-193.8940206600621
 20
-2.086637645638285
 30
0.0
 11
8.301754328184019
 21
-36.97655719103115
 31
0.0
210
0.0
220
0.0
230
1.0
 40
0.5590169943749475
 41
-0.6872387920197004
 42
-0.2068175656628876
1001
DBPROPERTIES
1002
{
1000
PbHidd
1002
}
  0
ELLIPSE
  5
1B7
330
1F
100
AcDbEntity
  8
HIDDEN
100
AcDbEllipse
 10
-193.8940206600621
 20
-2.086637645638285
 30
0.0
 11
8.301754328184019
 21
-36.97655719103115
 31
0.0
210
0.0
220
0.0
230
1.0
 40
0.5590169943749475
 41
-0.2068175656628875
 42
0.0484951044225289
1001
DBPROPERTIES
1002
{
1000
PbHidd
1002
}
  0
LINE
  5
1B8
330
1F
100
AcDbEntity
  8
HIDDEN
100
AcDbLine
 10
-184.6
 20
-39.60000000000001
 30
0.0
 11
-184.6
 21
-37.53463813424132
 31
0.0
1001
DBPROPERTIES
1002
{
1000
PbHidd
1002
}
  0
ELLIPSE
  5
1B9
330
1F
100
AcDbEntity
  8
HIDDEN
100
AcDbEllipse
 10
-195.512054648812
 20
-6.413944794781231
 30
0.0
 11
-18.86671468009555
 21
32.09797218714117
 31
0.0
210
0.0
220
0.0
230
1.0
 40
0.3454915028125262
 41
1.793419993046483
 42
2.624192100346485
1001
DBPROPERTIES
1002
{
1000
PbHidd
1002
}
  0
ELLIPSE
  5
1BA
330
1F
100
AcDbEntity
  8
HIDDEN
100
AcDbEllipse
 10
-188.7744267336609
 20
5.13275287422331
 30
0.0
 11
30.21733026030677
 21
24.57551227372714
 31
0.0
210
0.0
220
0.0
230
1.0
 40
0.3790939182964527
 41
-2.307046385505125
 42
-2.252826599315846
1001
DBPROPERTIES
1002
{
1000
PbHidd
1002
}
  0
ELLIPSE
  5
1BB
330
1F
100
AcDbEntity
  8
HIDDEN
100
AcDbEllipse
 10
-193.8940206600621
 20
-5.462888278486081
 30
0.0
 11
19.20363243106907
 21
-32.67117090156872
 31
0.0
210
0.0
220
0.0
230
1.0
 40
0.3454915028125262
 41
-1.344740880480367
 42
-0.609006984038137
1001
DBPROPERTIES
1002
{
1000
PbHidd
1002
}
  0
LINE
  5
1BC
330
1F
100
AcDbEntity
  8
HIDDEN
100
AcDbLine
 10
-184.6
 20
-22.94722650409882
 30
0.0
 11
-184.6
 21
-36.05571812923156
 31
0.0
1001
DBPROPERTIES
1002
{
1000
PbHidd
1002
}
  0
ELLIPSE
  5
1BD
330
1F
100
AcDbEntity
  8
HIDDEN
100
AcDbEllipse
 10
-188.7744267336609
 20
5.745605484542319
 30
0.0
 11
31.51059245641658
 21
22.89378550223156
 31
0.0
210
0.0
220
0.0
230
1.0
 40
0.1152806147236408
 41
1.870198567723879
 42
1.924418353913158
1001
DBPROPERTIES
1002
{
1000
PbHidd
1002
}
  0
LINE
  5
1BE
330
1F
100
AcDbEntity
  8
HIDDEN
100
AcDbLine
 10
-202.162388811772
 20
-21.84088398765278
 30
0.0
 11
-204.5327406727467
 21
-44.90480720911707
 31
0.0
1001
DBPROPERTIES
1002
{
1000
PbHidd
1002
}
  0
LINE
  5
1BF
330
1F
100
AcDbEntity
  8
HIDDEN
100
AcDbLine
 10
-157.7665350043054
 20
27.10124852729063
 30
0.0
 11
-178.1998736762447
 21
11.78551859978812
 31
0.0
1001
DBPROPERTIES
1002
{
1000
PbHidd
1002
}
  0
ELLIPSE
  5
1C0
330
1F
100
AcDbEntity
  8
HIDDEN
100
AcDbEllipse
 10
-200.4180339887499
 20
-4.868017481400331
 30
0.0
 11
-39.12983376367048
 21
-66.57164944349445
 31
0.0
210
0.0
220
0.0
230
1.0
 40
0.3454915028125264
 41
1.039406675134543
 42
2.261137151530574
1001
DBPROPERTIES
1002
{
1000
PbHidd
1002
}
  0
ELLIPSE
  5
1C1
330
1F
100
AcDbEntity
  8
HIDDEN
100
AcDbEllipse
 10
-200.4180339887499
 20
-44.43772066572964
 30
0.0
 11
-5.016645354316728
 21
-8.534826851730056
 31
0.0
210
0.0
220
0.0
230
1.0
 40
0.3454915028125264
 41
-1.316787815057803
 42
-0.0000258339311912
1001
DBPROPERTIES
1002
{
1000
PbHidd
1002
}
  0
ELLIPSE
  5
1C2
330
1F
100
AcDbEntity
  8
HIDDEN
100
AcDbEllipse
 10
-200.4180339887499
 20
-44.43772066572964
 30
0.0
 11
-5.016645354316728
 21
-8.534826851730056
 31
0.0
210
0.0
220
0.0
230
1.0
 40
0.3454915028125264
 41
-0.0000258339311911
 42
1.039406675134543
1001
DBPROPERTIES
1002
{
1000
PbHidd
1002
}
  0
LINE
  5
1C3
330
1F
100
AcDbEntity
  8
HIDDEN
100
AcDbLine
 10
-175.9442377554542
 20
11.31237414422726
 30
0.0
 11
-156.1485010155555
 21
26.15019201099548
 31
0.0
1001
DBPROPERTIES
1002
{
1000
PbHidd
1002
}
  0
LINE
  5
1C4
330
1F
100
AcDbEntity
  8
HIDDEN
100
AcDbLine
 10
-156.1485010155555
 20
26.1501920109955
 30
0.0
 11
-157.7665350043054
 21
27.10124852729065
 31
0.0
1001
DBPROPERTIES
1002
{
1000
PbHidd
1002
}
  0
LINE
  5
1C5
330
1F
100
AcDbEntity
  8
HIDDEN
100
AcDbLine
 10
-202.9147066839968
 20
-45.85586372541223
 30
0.0
 11
-200.59024645575
 21
-23.23847382719416
 31
0.0
1001
DBPROPERTIES
1002
{
1000
PbHidd
1002
}
  0
LINE
  5
1C6
330
1F
100
AcDbEntity
  8
HIDDEN
100
AcDbLine
 10
-202.9147066839968
 20
-45.85586372541223
 30
0.0
 11
-204.5327406727467
 21
-44.90480720911707
 31
0.0
1001
DBPROPERTIES
1002
{
1000
PbHidd
1002
}
  0
LINE
  5
1C7
330
1F
100
AcDbEntity
  8
HIDDEN
100
AcDbLine
 10
-198.8
 20
-51.20785117972027
 30
0.0
 11
-200.4180339887499
 21
-50.25679466342512
 31
0.0
1001
DBPROPERTIES
1002
{
1000
PbHidd
1002
}
  0
ELLIPSE
  5
1C8
330
1F
100
AcDbEntity
  8
HIDDEN
100
AcDbEllipse
 10
-198.8
 20
-45.38877718202479
 30
0.0
 11
5.016645354316728
 21
8.534826851730056
 31
0.0
210
0.0
220
0.0
230
1.0
 40
0.3454915028125264
 41
3.141566819658602
 42
4.180999328724337
1001
DBPROPERTIES
1002
{
1000
PbHidd
1002
}
  0
ELLIPSE
  5
1C9
330
1F
100
AcDbEntity
  8
HIDDEN
100
AcDbEllipse
 10
-198.8
 20
-45.38877718202479
 30
0.0
 11
5.016645354316728
 21
8.534826851730056
 31
0.0
210
0.0
220
0.0
230
1.0
 40
0.3454915028125264
 41
1.824804838531991
 42
3.141566819658602
1001
DBPROPERTIES
1002
{
1000
PbHidd
1002
}
  0
ELLIPSE
  5
1CA
330
1F
100
AcDbEntity
  8
HIDDEN
100
AcDbEllipse
 10
-198.8
 20
-5.819073997695485
 30
0.0
 11
39.12983376367048
 21
66.57164944349445
 31
0.0
210
0.0
220
0.0
230
1.0
 40
0.3454915028125264
 41
-2.10218597845525
 42
-0.8804555020592193
1001
DBPROPERTIES
1002
{
1000
PbHidd
1002
}
  0
ELLIPSE
  5
1CB
330
1F
100
AcDbEntity
  8
HIDDEN
100
AcDbEllipse
 10
-198.8
 20
-0.0000000000000035
 30
0.0
 11
-26.21649089774187
 21
-38.78099455873142
 31
0.0
210
0.0
220
0.0
230
1.0
 40
0.3056146845806993
 41
1.662379250424261
 42
1.774529691511357
1001
DBPROPERTIES
1002
{
1000
PbHidd
1002
}
  0
LINE
  5
1CC
330
1F
100
AcDbEntity
  8
HIDDEN
100
AcDbLine
 10
-184.6
 20
-0.0000000000000052
 30
0.0
 11
-184.6
 21
-19.54462327069066
 31
0.0
1001
DBPROPERTIES
1002
{
1000
PbHidd
1002
}
  0
LINE
  5
1CD
330
1F
100
AcDbEntity
  8
HIDDEN
100
AcDbLine
 10
-202.162388811772
 20
-34.11396469965617
 30
0.0
 11
-204.5327406727467
 21
-68.16966693930259
 31
0.0
1001
DBPROPERTIES
1002
{
1000
PbHidd
1002
}
  0
ELLIPSE
  5
1CE
330
1F
100
AcDbEntity
  8
HIDDEN
100
AcDbEllipse
 10
-201.2721359549996
 20
-0.0000000000000032
 30
0.0
 11
-15.33928817826422
 21
-38.3868973361743
 31
0.0
210
0.0
220
0.0
230
1.0
 40
0.6340950937257179
 41
1.180403774565681
 42
1.492829968363931
1001
DBPROPERTIES
1002
{
1000
PbHidd
1002
}
  0
LINE
  5
1CF
330
1F
100
AcDbEntity
  8
HIDDEN
100
AcDbLine
 10
-157.7665350043054
 20
-16.02958133305464
 30
0.0
 11
-178.1998736762447
 21
-12.68687499534598
 31
0.0
1001
DBPROPERTIES
1002
{
1000
PbHidd
1002
}
  0
ELLIPSE
  5
1D0
330
1F
100
AcDbEntity
  8
HIDDEN
100
AcDbEllipse
 10
-200.4180339887499
 20
-9.052188247319343
 30
0.0
 11
-16.91587609660305
 21
-75.34441940770648
 31
0.0
210
0.0
220
0.0
230
1.0
 40
0.5590169943749475
 41
0.3819045866738772
 42
1.603635063069907
1001
DBPROPERTIES
1002
{
1000
PbHidd
1002
}
  0
ELLIPSE
  5
1D1
330
1F
100
AcDbEntity
  8
HIDDEN
100
AcDbEllipse
 10
-200.4180339887499
 20
-73.07731292430907
 30
0.0
 11
-2.168702063667057
 21
-9.65954094970596
 31
0.0
210
0.0
220
0.0
230
1.0
 40
0.5590169943749473
 41
-1.974289903518468
 42
0.0000239913562619
1001
DBPROPERTIES
1002
{
1000
PbHidd
1002
}
  0
ELLIPSE
  5
1D2
330
1F
100
AcDbEntity
  8
HIDDEN
100
AcDbEllipse
 10
-200.4180339887499
 20
-73.07731292430907
 30
0.0
 11
-2.168702063667057
 21
-9.65954094970596
 31
0.0
210
0.0
220
0.0
230
1.0
 40
0.5590169943749473
 41
0.0000239913562618
 42
0.3819045866738772
1001
DBPROPERTIES
1002
{
1000
PbHidd
1002
}
  0
ELLIPSE
  5
1D3
330
1F
100
AcDbEntity
  8
HIDDEN
100
AcDbEllipse
 10
-245.0754489782034
 20
0.0000000000000022
 30
0.0
 11
-192.9595627445813
 21
39.58591551782263
 31
0.0
210
0.0
220
0.0
230
1.0
 40
0.0054730335081041
 41
-1.936085228801909
 42
-1.923594021067549
1001
DBPROPERTIES
1002
{
1000
PbHidd
1002
}
  0
LINE
  5
1D4
330
1F
100
AcDbEntity
  8
HIDDEN
100
AcDbLine
 10
-175.9442377554542
 20
-13.1544520731653
 30
0.0
 11
-156.1485010155555
 21
-16.39285259705732
 31
0.0
1001
DBPROPERTIES
1002
{
1000
PbHidd
1002
}
  0
LINE
  5
1D5
330
1F
100
AcDbEntity
  8
HIDDEN
100
AcDbLine
 10
-156.1485010155555
 20
-16.39285259705732
 30
0.0
 11
-157.7665350043054
 21
-16.02958133305464
 31
0.0
1001
DBPROPERTIES
1002
{
1000
PbHidd
1002
}
  0
LINE
  5
1D6
330
1F
100
AcDbEntity
  8
HIDDEN
100
AcDbLine
 10
-202.9147066839968
 20
-68.53293820330526
 30
0.0
 11
-200.59024645575
 21
-35.1365776441931
 31
0.0
1001
DBPROPERTIES
1002
{
1000
PbHidd
1002
}
  0
LINE
  5
1D7
330
1F
100
AcDbEntity
  8
HIDDEN
100
AcDbLine
 10
-202.9147066839968
 20
-68.53293820330526
 30
0.0
 11
-204.5327406727467
 21
-68.16966693930259
 31
0.0
1001
DBPROPERTIES
1002
{
1000
PbHidd
1002
}
  0
LINE
  5
1D8
330
1F
100
AcDbEntity
  8
HIDDEN
100
AcDbLine
 10
-198.8
 20
-82.85604369963379
 30
0.0
 11
-200.4180339887499
 21
-82.49277243563111
 31
0.0
1001
DBPROPERTIES
1002
{
1000
PbHidd
1002
}
  0
ELLIPSE
  5
1D9
330
1F
100
AcDbEntity
  8
HIDDEN
100
AcDbEllipse
 10
-198.8
 20
-73.44058418831176
 30
0.0
 11
2.168702063667057
 21
9.65954094970596
 31
0.0
210
0.0
220
0.0
230
1.0
 40
0.5590169943749473
 41
-3.141568662233537
 42
-2.759688066915917
1001
DBPROPERTIES
1002
{
1000
PbHidd
1002
}
  0
ELLIPSE
  5
1DA
330
1F
100
AcDbEntity
  8
HIDDEN
100
AcDbEllipse
 10
-198.8
 20
-73.44058418831176
 30
0.0
 11
2.168702063667057
 21
9.65954094970596
 31
0.0
210
0.0
220
0.0
230
1.0
 40
0.5590169943749473
 41
1.167302750071326
 42
3.141616644946049
1001
DBPROPERTIES
1002
{
1000
PbHidd
1002
}
  0
ELLIPSE
  5
1DB
330
1F
100
AcDbEntity
  8
HIDDEN
100
AcDbEllipse
 10
-198.8
 20
-9.415459511322023
 30
0.0
 11
16.91587609660305
 21
75.34441940770648
 31
0.0
210
0.0
220
0.0
230
1.0
 40
0.5590169943749475
 41
-2.759688066915917
 42
-1.537957590519886
1001
DBPROPERTIES
1002
{
1000
PbHidd
1002
}
  0
ELLIPSE
  5
1DC
330
1F
100
AcDbEntity
  8
HIDDEN
100
AcDbEllipse
 10
-198.8
 20
-0.0000000000000035
 30
0.0
 11
-15.33928817826422
 21
-38.3868973361743
 31
0.0
210
0.0
220
0.0
230
1.0
 40
0.6340950937257179
 41
1.078486989452395
 42
1.480338760629572
1001
DBPROPERTIES
1002
{
1000
PbHidd
1002
}
  0
LINE
  5
1DD
330
1F
100
AcDbEntity
  8
HIDDEN
100
AcDbLine
 10
-202.162388811772
 20
-33.35667038740506
 30
0.0
 11
-204.5327406727467
 21
-65.39603090043454
 31
0.0
1001
DBPROPERTIES
1002
{
1000
PbHidd
1002
}
  0
ELLIPSE
  5
1DE
330
1F
100
AcDbEntity
  8
HIDDEN
100
AcDbEllipse
 10
-201.2721359549996
 20
-0.0000000000000032
 30
0.0
 11
-15.33928817826423
 21
38.3868973361743
 31
0.0
210
0.0
220
0.0
230
1.0
 40
0.6340950937257178
 41
-3.085826678667174
 42
-2.773400484868924
1001
DBPROPERTIES
1002
{
1000
PbHidd
1002
}
  0
LINE
  5
1DF
330
1F
100
AcDbEntity
  8
HIDDEN
100
AcDbLine
 10
-157.7665350043054
 20
-53.0376559496039
 30
0.0
 11
-178.1998736762447
 21
-32.31331355327909
 31
0.0
1001
DBPROPERTIES
1002
{
1000
PbHidd
1002
}
  0
ELLIPSE
  5
1E0
330
1F
100
AcDbEntity
  8
HIDDEN
100
AcDbEllipse
 10
-200.4180339887499
 20
-9.778730775324705
 30
0.0
 11
16.91587609660305
 21
-75.34441940770648
 31
0.0
210
0.0
220
0.0
230
1.0
 40
0.5590169943749475
 41
-0.3819045866738772
 42
-0.0000002212832882
1001
DBPROPERTIES
1002
{
1000
PbHidd
1002
}
  0
ELLIPSE
  5
1E1
330
1F
100
AcDbEntity
  8
HIDDEN
100
AcDbEllipse
 10
-200.4180339887499
 20
-9.778730775324705
 30
0.0
 11
16.91587609660305
 21
-75.34441940770648
 31
0.0
210
0.0
220
0.0
230
1.0
 40
0.5590169943749475
 41
-0.0000002212832882
 42
0.8398258897221536
1001
DBPROPERTIES
1002
{
1000
PbHidd
1002
}
  0
ELLIPSE
  5
1E2
330
1F
100
AcDbEntity
  8
HIDDEN
100
AcDbEllipse
 10
-200.4180339887499
 20
-73.80385545231444
 30
0.0
 11
2.168702063667057
 21
-9.65954094970596
 31
0.0
210
0.0
220
0.0
230
1.0
 40
0.5590169943749473
 41
-2.738099076866222
 42
-0.3819045866738771
1001
DBPROPERTIES
1002
{
1000
PbHidd
1002
}
  0
ELLIPSE
  5
1E3
330
1F
100
AcDbEntity
  8
HIDDEN
100
AcDbEllipse
 10
-245.0754489782034
 20
0.0000000000000022
 30
0.0
 11
192.9236310253545
 21
-33.09801327596943
 31
0.0
210
0.0
220
0.0
230
1.0
 40
0.112693504132748
 41
-1.197544523060609
 42
-1.185053315326251
1001
DBPROPERTIES
1002
{
1000
PbHidd
1002
}
  0
LINE
  5
1E4
330
1F
100
AcDbEntity
  8
HIDDEN
100
AcDbLine
 10
-175.9442377554542
 20
-32.59672470199023
 30
0.0
 11
-156.1485010155556
 21
-52.67438468560123
 31
0.0
1001
DBPROPERTIES
1002
{
1000
PbHidd
1002
}
  0
LINE
  5
1E5
330
1F
100
AcDbEntity
  8
HIDDEN
100
AcDbLine
 10
-156.1485010155555
 20
-52.67438468560123
 30
0.0
 11
-157.7665350043054
 21
-53.03765594960391
 31
0.0
1001
DBPROPERTIES
1002
{
1000
PbHidd
1002
}
  0
LINE
  5
1E6
330
1F
100
AcDbEntity
  8
HIDDEN
100
AcDbLine
 10
-202.9147066839968
 20
-65.03275963643186
 30
0.0
 11
-200.59024645575
 21
-33.61370304946006
 31
0.0
1001
DBPROPERTIES
1002
{
1000
PbHidd
1002
}
  0
LINE
  5
1E7
330
1F
100
AcDbEntity
  8
HIDDEN
100
AcDbLine
 10
-202.9147066839968
 20
-65.03275963643186
 30
0.0
 11
-204.5327406727467
 21
-65.39603090043454
 31
0.0
1001
DBPROPERTIES
1002
{
1000
PbHidd
1002
}
  0
LINE
  5
1E8
330
1F
100
AcDbEntity
  8
HIDDEN
100
AcDbLine
 10
-198.8
 20
-82.85604369963377
 30
0.0
 11
-200.4180339887499
 21
-83.21931496363645
 31
0.0
1001
DBPROPERTIES
1002
{
1000
PbHidd
1002
}
  0
ELLIPSE
  5
1E9
330
1F
100
AcDbEntity
  8
HIDDEN
100
AcDbEllipse
 10
-198.8
 20
-73.44058418831175
 30
0.0
 11
-2.168702063667057
 21
9.65954094970596
 31
0.0
210
0.0
220
0.0
230
1.0
 40
0.5590169943749473
 41
0.4034935767235707
 42
2.759688066915917
1001
DBPROPERTIES
1002
{
1000
PbHidd
1002
}
  0
ELLIPSE
  5
1EA
330
1F
100
AcDbEntity
  8
HIDDEN
100
AcDbEllipse
 10
-198.8
 20
-9.415459511322025
 30
0.0
 11
-16.91587609660305
 21
75.34441940770648
 31
0.0
210
0.0
220
0.0
230
1.0
 40
0.5590169943749475
 41
3.141592432306505
 42
3.981418543311946
1001
DBPROPERTIES
1002
{
1000
PbHidd
1002
}
  0
ELLIPSE
  5
1EB
330
1F
100
AcDbEntity
  8
HIDDEN
100
AcDbEllipse
 10
-198.8
 20
-9.415459511322025
 30
0.0
 11
-16.91587609660305
 21
75.34441940770648
 31
0.0
210
0.0
220
0.0
230
1.0
 40
0.5590169943749475
 41
2.759688066915917
 42
3.141592432306505
1001
DBPROPERTIES
1002
{
1000
PbHidd
1002
}
  0
ELLIPSE
  5
1EC
330
1F
100
AcDbEntity
  8
HIDDEN
100
AcDbEllipse
 10
-198.8
 20
-0.0000000000000035
 30
0.0
 11
-15.33928817826423
 21
38.3868973361743
 31
0.0
210
0.0
220
0.0
230
1.0
 40
0.6340950937257178
 41
3.095441843399127
 42
3.497293614576304
1001
DBPROPERTIES
1002
{
1000
PbHidd
1002
}
  0
LINE
  5
1ED
330
1F
100
AcDbEntity
  8
HIDDEN
100
AcDbLine
 10
-202.162388811772
 20
-19.85826173869237
 30
0.0
 11
-204.5327406727467
 21
-37.6433337869389
 31
0.0
1001
DBPROPERTIES
1002
{
1000
PbHidd
1002
}
  0
ELLIPSE
  5
1EE
330
1F
100
AcDbEntity
  8
HIDDEN
100
AcDbEllipse
 10
-201.2721359549996
 20
-0.0000000000000032
 30
0.0
 11
-26.21649089774188
 21
38.78099455873145
 31
0.0
210
0.0
220
0.0
230
1.0
 40
0.3056146845806991
 41
2.613466367540548
 42
2.925892561338795
1001
DBPROPERTIES
1002
{
1000
PbHidd
1002
}
  0
LINE
  5
1EF
330
1F
100
AcDbEntity
  8
HIDDEN
100
AcDbLine
 10
-157.7665350043054
 20
-69.78714867702755
 30
0.0
 11
-178.1998736762447
 21
-39.59716462299222
 31
0.0
1001
DBPROPERTIES
1002
{
1000
PbHidd
1002
}
  0
ELLIPSE
  5
1F0
330
1F
100
AcDbEntity
  8
HIDDEN
100
AcDbEllipse
 10
-200.4180339887499
 20
-6.770130513990645
 30
0.0
 11
39.12983376367046
 21
-66.57164944349445
 31
0.0
210
0.0
220
0.0
230
1.0
 40
0.3454915028125262
 41
-1.039406675134543
 42
-0.0000039553441542
1001
DBPROPERTIES
1002
{
1000
PbHidd
1002
}
  0
ELLIPSE
  5
1F1
330
1F
100
AcDbEntity
  8
HIDDEN
100
AcDbEllipse
 10
-200.4180339887499
 20
-6.770130513990645
 30
0.0
 11
39.12983376367046
 21
-66.57164944349445
 31
0.0
210
0.0
220
0.0
230
1.0
 40
0.3454915028125262
 41
-0.0000039553441543
 42
0.1823238012614873
1001
DBPROPERTIES
1002
{
1000
PbHidd
1002
}
  0
ELLIPSE
  5
1F2
330
1F
100
AcDbEntity
  8
HIDDEN
100
AcDbEllipse
 10
-200.4180339887499
 20
-46.33983369831993
 30
0.0
 11
5.016645354316726
 21
-8.534826851730058
 31
0.0
210
0.0
220
0.0
230
1.0
 40
0.3454915028125262
 41
2.887584141852697
 42
3.141544875124074
1001
DBPROPERTIES
1002
{
1000
PbHidd
1002
}
  0
ELLIPSE
  5
1F3
330
1F
100
AcDbEntity
  8
HIDDEN
100
AcDbEllipse
 10
-200.4180339887499
 20
-46.33983369831993
 30
0.0
 11
5.016645354316726
 21
-8.534826851730058
 31
0.0
210
0.0
220
0.0
230
1.0
 40
0.3454915028125262
 41
3.141544875124074
 42
5.243778632045043
1001
DBPROPERTIES
1002
{
1000
PbHidd
1002
}
  0
ELLIPSE
  5
1F4
330
1F
100
AcDbEntity
  8
HIDDEN
100
AcDbEllipse
 10
-245.0754489782034
 20
0.0000000000000022
 30
0.0
 11
192.9414416601587
 21
-13.7907383907626
 31
0.0
210
0.0
220
0.0
230
1.0
 40
0.1923956436423628
 41
-1.203124972751846
 42
-1.190633765017488
1001
DBPROPERTIES
1002
{
1000
PbHidd
1002
}
  0
LINE
  5
1F5
330
1F
100
AcDbEntity
  8
HIDDEN
100
AcDbLine
 10
-175.9442377554542
 20
-39.58815641657819
 30
0.0
 11
-156.1485010155555
 21
-68.83609216073239
 31
0.0
1001
DBPROPERTIES
1002
{
1000
PbHidd
1002
}
  0
LINE
  5
1F6
330
1F
100
AcDbEntity
  8
HIDDEN
100
AcDbLine
 10
-156.1485010155555
 20
-68.83609216073242
 30
0.0
 11
-157.7665350043054
 21
-69.78714867702757
 31
0.0
1001
DBPROPERTIES
1002
{
1000
PbHidd
1002
}
  0
LINE
  5
1F7
330
1F
100
AcDbEntity
  8
HIDDEN
100
AcDbLine
 10
-202.9147066839968
 20
-36.69227727064374
 30
0.0
 11
-200.59024645575
 21
-19.25153637757928
 31
0.0
1001
DBPROPERTIES
1002
{
1000
PbHidd
1002
}
  0
LINE
  5
1F8
330
1F
100
AcDbEntity
  8
HIDDEN
100
AcDbLine
 10
-202.9147066839968
 20
-36.69227727064375
 30
0.0
 11
-204.5327406727467
 21
-37.6433337869389
 31
0.0
1001
DBPROPERTIES
1002
{
1000
PbHidd
1002
}
  0
LINE
  5
1F9
330
1F
100
AcDbEntity
  8
HIDDEN
100
AcDbLine
 10
-198.8
 20
-51.20785117972027
 30
0.0
 11
-200.4180339887499
 21
-52.15890769601542
 31
0.0
1001
DBPROPERTIES
1002
{
1000
PbHidd
1002
}
  0
ELLIPSE
  5
1FA
330
1F
100
AcDbEntity
  8
HIDDEN
100
AcDbEllipse
 10
-198.8
 20
-45.38877718202477
 30
0.0
 11
-5.016645354316726
 21
8.534826851730058
 31
0.0
210
0.0
220
0.0
230
1.0
 40
0.3454915028125262
 41
-0.0000477784657185
 42
2.10218597845525
1001
DBPROPERTIES
1002
{
1000
PbHidd
1002
}
  0
ELLIPSE
  5
1FB
330
1F
100
AcDbEntity
  8
HIDDEN
100
AcDbEllipse
 10
-198.8
 20
-45.38877718202477
 30
0.0
 11
-5.016645354316726
 21
8.534826851730058
 31
0.0
210
0.0
220
0.0
230
1.0
 40
0.3454915028125262
 41
-0.2540085117370957
 42
-0.0000477784657185
1001
DBPROPERTIES
1002
{
1000
PbHidd
1002
}
  0
ELLIPSE
  5
1FC
330
1F
100
AcDbEntity
  8
HIDDEN
100
AcDbEllipse
 10
-198.8
 20
-5.819073997695491
 30
0.0
 11
-39.12983376367046
 21
66.57164944349445
 31
0.0
210
0.0
220
0.0
230
1.0
 40
0.3454915028125262
 41
3.141588698245639
 42
3.32391645485128
1001
DBPROPERTIES
1002
{
1000
PbHidd
1002
}
  0
ELLIPSE
  5
1FD
330
1F
100
AcDbEntity
  8
HIDDEN
100
AcDbEllipse
 10
-198.8
 20
-5.819073997695491
 30
0.0
 11
-39.12983376367046
 21
66.57164944349445
 31
0.0
210
0.0
220
0.0
230
1.0
 40
0.3454915028125262
 41
2.10218597845525
 42
3.141588698245639
1001
DBPROPERTIES
1002
{
1000
PbHidd
1002
}
  0
ELLIPSE
  5
1FE
330
1F
100
AcDbEntity
  8
HIDDEN
100
AcDbEllipse
 10
-198.8
 20
-0.0000000000000035
 30
0.0
 11
-26.21649089774188
 21
38.78099455873145
 31
0.0
210
0.0
220
0.0
230
1.0
 40
0.3056146845806991
 41
2.511549582427261
 42
2.913401353604438
1001
DBPROPERTIES
1002
{
1000
PbHidd
1002
}
  0
LINE
  5
1FF
330
1F
100
AcDbEntity
  8
HIDDEN
100
AcDbLine
 10
-200.4180339887499
 20
-1.175570504584953
 30
0.0
 11
-157.7665350043054
 21
-59.88032258776897
 31
0.0
1001
DBPROPERTIES
1002
{
1000
PbHidd
1002
}
  0
LINE
  5
200
330
1F
100
AcDbEntity
  8
HIDDEN
100
AcDbLine
 10
-206.2371079819172
 20
6.833697733494515
 30
0.0
 11
-200.4180339887499
 21
-1.175570504584951
 31
0.0
1001
DBPROPERTIES
1002
{
1000
PbHidd
1002
}
  0
ELLIPSE
  5
201
330
1F
100
AcDbEntity
  8
HIDDEN
100
AcDbEllipse
 10
-245.0754489782034
 20
0.0000000000000022
 30
0.0
 11
192.946185140272
 21
11.63423933032695
 31
0.0
210
0.0
220
0.0
230
1.0
 40
0.1961811465503412
 41
-1.228704581574545
 42
-1.216213373840187
1001
DBPROPERTIES
1002
{
1000
PbHidd
1002
}
  0
LINE
  5
202
330
1F
100
AcDbEntity
  8
HIDDEN
100
AcDbLine
 10
-156.1485010155555
 20
-58.70475208318402
 30
0.0
 11
-157.7665350043054
 21
-59.88032258776897
 31
0.0
1001
DBPROPERTIES
1002
{
1000
PbHidd
1002
}
  0
LINE
  5
203
330
1F
100
AcDbEntity
  8
HIDDEN
100
AcDbLine
 10
-202.9147066839968
 20
5.663407887895063
 30
0.0
 11
-204.5327406727467
 21
4.487837383310117
 31
0.0
1001
DBPROPERTIES
1002
{
1000
PbHidd
1002
}
  0
LINE
  5
204
330
1F
100
AcDbEntity
  8
HIDDEN
100
AcDbLine
 10
-198.8
 20
-0.0000000000000069
 30
0.0
 11
-200.4180339887499
 21
-1.175570504584952
 31
0.0
1001
DBPROPERTIES
1002
{
1000
PbHidd
1002
}
  0
LINE
  5
205
330
1F
100
AcDbEntity
  8
HIDDEN
100
AcDbLine
 10
-198.8
 20
-0.0000000000000049
 30
0.0
 11
-204.6190739931673
 21
8.00926823807946
 31
0.0
1001
DBPROPERTIES
1002
{
1000
PbHidd
1002
}
  0
LINE
  5
206
330
1F
100
AcDbEntity
  8
HIDDEN
100
AcDbLine
 10
-156.1485010155555
 20
-58.70475208318403
 30
0.0
 11
-198.8
 21
-0.0000000000000069
 31
0.0
1001
DBPROPERTIES
1002
{
1000
PbHidd
1002
}
  0
LINE
  5
207
330
1F
100
AcDbEntity
  8
HIDDEN
100
AcDbLine
 10
-202.1623888117719
 20
21.84088398765276
 30
0.0
 11
-204.5327406727467
 21
44.90480720911705
 31
0.0
1001
DBPROPERTIES
1002
{
1000
PbHidd
1002
}
  0
ELLIPSE
  5
208
330
1F
100
AcDbEntity
  8
HIDDEN
100
AcDbEllipse
 10
-201.2721359549996
 20
-0.0000000000000032
 30
0.0
 11
26.21649089774186
 21
-38.78099455873143
 31
0.0
210
0.0
220
0.0
230
1.0
 40
0.3056146845806994
 41
1.064870424253995
 42
1.367062962078436
1001
DBPROPERTIES
1002
{
1000
PbHidd
1002
}
  0
LINE
  5
209
330
1F
100
AcDbEntity
  8
HIDDEN
100
AcDbLine
 10
-157.7665350043054
 20
-27.10124852729065
 30
0.0
 11
-178.1998736762447
 21
-11.78551859978813
 31
0.0
1001
DBPROPERTIES
1002
{
1000
PbHidd
1002
}
  0
ELLIPSE
  5
20A
330
1F
100
AcDbEntity
  8
HIDDEN
100
AcDbEllipse
 10
-200.4180339887499
 20
4.868017481400322
 30
0.0
 11
39.12983376367046
 21
-66.57164944349445
 31
0.0
210
0.0
220
0.0
230
1.0
 40
0.3454915028125263
 41
0.8804555020592194
 42
2.10218597845525
1001
DBPROPERTIES
1002
{
1000
PbHidd
1002
}
  0
ELLIPSE
  5
20B
330
1F
100
AcDbEntity
  8
HIDDEN
100
AcDbEllipse
 10
-200.4180339887499
 20
44.43772066572961
 30
0.0
 11
5.016645354316725
 21
-8.534826851730056
 31
0.0
210
0.0
220
0.0
230
1.0
 40
0.3454915028125264
 41
-3.141566819658602
 42
-1.824804838531991
1001
DBPROPERTIES
1002
{
1000
PbHidd
1002
}
  0
ELLIPSE
  5
20C
330
1F
100
AcDbEntity
  8
HIDDEN
100
AcDbEllipse
 10
-200.4180339887499
 20
44.43772066572961
 30
0.0
 11
5.016645354316725
 21
-8.534826851730056
 31
0.0
210
0.0
220
0.0
230
1.0
 40
0.3454915028125264
 41
2.10218597845525
 42
3.141618487520985
1001
DBPROPERTIES
1002
{
1000
PbHidd
1002
}
  0
ELLIPSE
  5
20D
330
1F
100
AcDbEntity
  8
HIDDEN
100
AcDbEllipse
 10
-245.0754489782034
 20
0.0000000000000022
 30
0.0
 11
192.9205879491529
 21
31.85774756660429
 31
0.0
210
0.0
220
0.0
230
1.0
 40
0.1219213458618124
 41
-1.237006472074959
 42
-1.224515264340601
1001
DBPROPERTIES
1002
{
1000
PbHidd
1002
}
  0
LINE
  5
20E
330
1F
100
AcDbEntity
  8
HIDDEN
100
AcDbLine
 10
-175.9442377554542
 20
-11.31237414422727
 30
0.0
 11
-156.1485010155555
 21
-26.1501920109955
 31
0.0
1001
DBPROPERTIES
1002
{
1000
PbHidd
1002
}
  0
LINE
  5
20F
330
1F
100
AcDbEntity
  8
HIDDEN
100
AcDbLine
 10
-156.1485010155555
 20
-26.15019201099552
 30
0.0
 11
-157.7665350043054
 21
-27.10124852729067
 31
0.0
1001
DBPROPERTIES
1002
{
1000
PbHidd
1002
}
  0
LINE
  5
210
330
1F
100
AcDbEntity
  8
HIDDEN
100
AcDbLine
 10
-202.9147066839968
 20
45.8558637254122
 30
0.0
 11
-200.59024645575
 21
23.23847382719414
 31
0.0
1001
DBPROPERTIES
1002
{
1000
PbHidd
1002
}
  0
LINE
  5
211
330
1F
100
AcDbEntity
  8
HIDDEN
100
AcDbLine
 10
-202.9147066839968
 20
45.8558637254122
 30
0.0
 11
-204.5327406727467
 21
44.90480720911705
 31
0.0
1001
DBPROPERTIES
1002
{
1000
PbHidd
1002
}
  0
LINE
  5
212
330
1F
100
AcDbEntity
  8
HIDDEN
100
AcDbLine
 10
-198.8
 20
51.20785117972024
 30
0.0
 11
-200.4180339887499
 21
50.25679466342509
 31
0.0
1001
DBPROPERTIES
1002
{
1000
PbHidd
1002
}
  0
ELLIPSE
  5
213
330
1F
100
AcDbEntity
  8
HIDDEN
100
AcDbEllipse
 10
-198.8
 20
45.38877718202476
 30
0.0
 11
-5.016645354316725
 21
8.534826851730056
 31
0.0
210
0.0
220
0.0
230
1.0
 40
0.3454915028125264
 41
-1.039406675134543
 42
0.0000258339311918
1001
DBPROPERTIES
1002
{
1000
PbHidd
1002
}
  0
ELLIPSE
  5
214
330
1F
100
AcDbEntity
  8
HIDDEN
100
AcDbEllipse
 10
-198.8
 20
45.38877718202476
 30
0.0
 11
-5.016645354316725
 21
8.534826851730056
 31
0.0
210
0.0
220
0.0
230
1.0
 40
0.3454915028125264
 41
0.0000258339311918
 42
1.316787815057803
1001
DBPROPERTIES
1002
{
1000
PbHidd
1002
}
  0
ELLIPSE
  5
215
330
1F
100
AcDbEntity
  8
HIDDEN
100
AcDbEllipse
 10
-198.8
 20
5.819073997695475
 30
0.0
 11
-39.12983376367046
 21
66.57164944349445
 31
0.0
210
0.0
220
0.0
230
1.0
 40
0.3454915028125263
 41
-2.261137151530574
 42
-1.039406675134543
1001
DBPROPERTIES
1002
{
1000
PbHidd
1002
}
  0
ELLIPSE
  5
216
330
1F
100
AcDbEntity
  8
HIDDEN
100
AcDbEllipse
 10
-198.8
 20
-0.0000000000000035
 30
0.0
 11
26.21649089774186
 21
-38.78099455873143
 31
0.0
210
0.0
220
0.0
230
1.0
 40
0.3056146845806994
 41
1.077361631988354
 42
1.367062962078436
1001
DBPROPERTIES
1002
{
1000
PbHidd
1002
}
  0
LINE
  5
217
330
1F
100
AcDbEntity
  8
HIDDEN
100
AcDbLine
 10
-202.1623888117719
 20
34.11396469965617
 30
0.0
 11
-204.5327406727467
 21
68.16966693930259
 31
0.0
1001
DBPROPERTIES
1002
{
1000
PbHidd
1002
}
  0
LINE
  5
218
330
1F
100
AcDbEntity
  8
HIDDEN
100
AcDbLine
 10
-157.7665350043054
 20
16.02958133305462
 30
0.0
 11
-178.1998736762447
 21
12.68687499534597
 31
0.0
1001
DBPROPERTIES
1002
{
1000
PbHidd
1002
}
  0
ELLIPSE
  5
219
330
1F
100
AcDbEntity
  8
HIDDEN
100
AcDbEllipse
 10
-200.4180339887499
 20
9.052188247319336
 30
0.0
 11
16.91587609660303
 21
-75.34441940770647
 31
0.0
210
0.0
220
0.0
230
1.0
 40
0.5590169943749476
 41
1.537957590519886
 42
2.759688066915917
1001
DBPROPERTIES
1002
{
1000
PbHidd
1002
}
  0
ELLIPSE
  5
21A
330
1F
100
AcDbEntity
  8
HIDDEN
100
AcDbEllipse
 10
-200.4180339887499
 20
73.07731292430907
 30
0.0
 11
2.168702063667055
 21
-9.659540949705958
 31
0.0
210
0.0
220
0.0
230
1.0
 40
0.5590169943749477
 41
3.141568662233537
 42
5.115882557108261
1001
DBPROPERTIES
1002
{
1000
PbHidd
1002
}
  0
ELLIPSE
  5
21B
330
1F
100
AcDbEntity
  8
HIDDEN
100
AcDbEllipse
 10
-200.4180339887499
 20
73.07731292430907
 30
0.0
 11
2.168702063667055
 21
-9.659540949705958
 31
0.0
210
0.0
220
0.0
230
1.0
 40
0.5590169943749477
 41
2.759688066915917
 42
3.141568662233537
1001
DBPROPERTIES
1002
{
1000
PbHidd
1002
}
  0
LINE
  5
21C
330
1F
100
AcDbEntity
  8
HIDDEN
100
AcDbLine
 10
-175.9442377554542
 20
13.15445207316528
 30
0.0
 11
-156.1485010155555
 21
16.3928525970573
 31
0.0
1001
DBPROPERTIES
1002
{
1000
PbHidd
1002
}
  0
LINE
  5
21D
330
1F
100
AcDbEntity
  8
HIDDEN
100
AcDbLine
 10
-156.1485010155555
 20
16.3928525970573
 30
0.0
 11
-157.7665350043054
 21
16.02958133305462
 31
0.0
1001
DBPROPERTIES
1002
{
1000
PbHidd
1002
}
  0
LINE
  5
21E
330
1F
100
AcDbEntity
  8
HIDDEN
100
AcDbLine
 10
-202.9147066839968
 20
68.53293820330526
 30
0.0
 11
-200.59024645575
 21
35.1365776441931
 31
0.0
1001
DBPROPERTIES
1002
{
1000
PbHidd
1002
}
  0
LINE
  5
21F
330
1F
100
AcDbEntity
  8
HIDDEN
100
AcDbLine
 10
-202.9147066839968
 20
68.53293820330526
 30
0.0
 11
-204.5327406727467
 21
68.16966693930259
 31
0.0
1001
DBPROPERTIES
1002
{
1000
PbHidd
1002
}
  0
LINE
  5
220
330
1F
100
AcDbEntity
  8
HIDDEN
100
AcDbLine
 10
-198.8
 20
82.85604369963379
 30
0.0
 11
-200.4180339887499
 21
82.49277243563111
 31
0.0
1001
DBPROPERTIES
1002
{
1000
PbHidd
1002
}
  0
ELLIPSE
  5
221
330
1F
100
AcDbEntity
  8
HIDDEN
100
AcDbEllipse
 10
-198.8
 20
73.44058418831176
 30
0.0
 11
-2.168702063667055
 21
9.659540949705958
 31
0.0
210
0.0
220
0.0
230
1.0
 40
0.5590169943749477
 41
-0.3819045866738767
 42
-0.0000239913562564
1001
DBPROPERTIES
1002
{
1000
PbHidd
1002
}
  0
ELLIPSE
  5
222
330
1F
100
AcDbEntity
  8
HIDDEN
100
AcDbEllipse
 10
-198.8
 20
73.44058418831176
 30
0.0
 11
-2.168702063667055
 21
9.659540949705958
 31
0.0
210
0.0
220
0.0
230
1.0
 40
0.5590169943749477
 41
-0.0000239913562564
 42
1.974289903518468
1001
DBPROPERTIES
1002
{
1000
PbHidd
1002
}
  0
ELLIPSE
  5
223
330
1F
100
AcDbEntity
  8
HIDDEN
100
AcDbEllipse
 10
-198.8
 20
9.415459511322016
 30
0.0
 11
-16.91587609660303
 21
75.34441940770647
 31
0.0
210
0.0
220
0.0
230
1.0
 40
0.5590169943749476
 41
-1.603635063069908
 42
-0.3819045866738766
1001
DBPROPERTIES
1002
{
1000
PbHidd
1002
}
  0
LINE
  5
224
330
1F
100
AcDbEntity
  8
HIDDEN
100
AcDbLine
 10
-202.1623888117719
 20
33.35667038740512
 30
0.0
 11
-204.5327406727467
 21
65.39603090043454
 31
0.0
1001
DBPROPERTIES
1002
{
1000
PbHidd
1002
}
  0
LINE
  5
225
330
1F
100
AcDbEntity
  8
HIDDEN
100
AcDbLine
 10
-157.7665350043054
 20
53.03765594960387
 30
0.0
 11
-178.1998736762447
 21
32.31331355327907
 31
0.0
1001
DBPROPERTIES
1002
{
1000
PbHidd
1002
}
  0
ELLIPSE
  5
226
330
1F
100
AcDbEntity
  8
HIDDEN
100
AcDbEllipse
 10
-200.4180339887499
 20
9.778730775324698
 30
0.0
 11
-16.91587609660305
 21
-75.34441940770644
 31
0.0
210
0.0
220
0.0
230
1.0
 40
0.5590169943749476
 41
-3.141592432306506
 42
-2.759688066915916
1001
DBPROPERTIES
1002
{
1000
PbHidd
1002
}
  0
ELLIPSE
  5
227
330
1F
100
AcDbEntity
  8
HIDDEN
100
AcDbEllipse
 10
-200.4180339887499
 20
9.778730775324698
 30
0.0
 11
-16.91587609660305
 21
-75.34441940770644
 31
0.0
210
0.0
220
0.0
230
1.0
 40
0.5590169943749476
 41
2.30176676386764
 42
3.141592874873079
1001
DBPROPERTIES
1002
{
1000
PbHidd
1002
}
  0
ELLIPSE
  5
228
330
1F
100
AcDbEntity
  8
HIDDEN
100
AcDbEllipse
 10
-200.4180339887499
 20
73.80385545231444
 30
0.0
 11
-2.168702063667058
 21
-9.659540949705956
 31
0.0
210
0.0
220
0.0
230
1.0
 40
0.5590169943749475
 41
-2.759688066915916
 42
-0.4034935767235703
1001
DBPROPERTIES
1002
{
1000
PbHidd
1002
}
  0
LINE
  5
229
330
1F
100
AcDbEntity
  8
HIDDEN
100
AcDbLine
 10
-175.9442377554542
 20
32.59672470199022
 30
0.0
 11
-156.1485010155555
 21
52.67438468560119
 31
0.0
1001
DBPROPERTIES
1002
{
1000
PbHidd
1002
}
  0
LINE
  5
22A
330
1F
100
AcDbEntity
  8
HIDDEN
100
AcDbLine
 10
-156.1485010155555
 20
52.6743846856012
 30
0.0
 11
-157.7665350043054
 21
53.03765594960389
 31
0.0
1001
DBPROPERTIES
1002
{
1000
PbHidd
1002
}
  0
LINE
  5
22B
330
1F
100
AcDbEntity
  8
HIDDEN
100
AcDbLine
 10
-202.9147066839968
 20
65.03275963643186
 30
0.0
 11
-200.59024645575
 21
33.61370304946011
 31
0.0
1001
DBPROPERTIES
1002
{
1000
PbHidd
1002
}
  0
LINE
  5
22C
330
1F
100
AcDbEntity
  8
HIDDEN
100
AcDbLine
 10
-202.9147066839968
 20
65.03275963643186
 30
0.0
 11
-204.5327406727467
 21
65.39603090043454
 31
0.0
1001
DBPROPERTIES
1002
{
1000
PbHidd
1002
}
  0
LINE
  5
22D
330
1F
100
AcDbEntity
  8
HIDDEN
100
AcDbLine
 10
-198.8
 20
82.85604369963377
 30
0.0
 11
-200.4180339887499
 21
83.21931496363645
 31
0.0
1001
DBPROPERTIES
1002
{
1000
PbHidd
1002
}
  0
ELLIPSE
  5
22E
330
1F
100
AcDbEntity
  8
HIDDEN
100
AcDbEllipse
 10
-198.8
 20
73.44058418831175
 30
0.0
 11
2.168702063667058
 21
9.659540949705956
 31
0.0
210
0.0
220
0.0
230
1.0
 40
0.5590169943749475
 41
0.3819045866738775
 42
2.738099076866223
1001
DBPROPERTIES
1002
{
1000
PbHidd
1002
}
  0
ELLIPSE
  5
22F
330
1F
100
AcDbEntity
  8
HIDDEN
100
AcDbEllipse
 10
-198.8
 20
9.415459511322018
 30
0.0
 11
16.91587609660305
 21
75.34441940770644
 31
0.0
210
0.0
220
0.0
230
1.0
 40
0.5590169943749476
 41
-0.8398258897221534
 42
0.0000002212832865
1001
DBPROPERTIES
1002
{
1000
PbHidd
1002
}
  0
ELLIPSE
  5
230
330
1F
100
AcDbEntity
  8
HIDDEN
100
AcDbEllipse
 10
-198.8
 20
9.415459511322018
 30
0.0
 11
16.91587609660305
 21
75.34441940770644
 31
0.0
210
0.0
220
0.0
230
1.0
 40
0.5590169943749476
 41
0.0000002212832865
 42
0.3819045866738772
1001
DBPROPERTIES
1002
{
1000
PbHidd
1002
}
  0
LINE
  5
231
330
1F
100
AcDbEntity
  8
HIDDEN
100
AcDbLine
 10
-202.1623888117719
 20
19.85826173869236
 30
0.0
 11
-204.5327406727467
 21
37.6433337869389
 31
0.0
1001
DBPROPERTIES
1002
{
1000
PbHidd
1002
}
  0
LINE
  5
232
330
1F
100
AcDbEntity
  8
HIDDEN
100
AcDbLine
 10
-157.7665350043054
 20
69.78714867702753
 30
0.0
 11
-178.1998736762447
 21
39.5971646229922
 31
0.0
1001
DBPROPERTIES
1002
{
1000
PbHidd
1002
}
  0
ELLIPSE
  5
233
330
1F
100
AcDbEntity
  8
HIDDEN
100
AcDbEllipse
 10
-200.4180339887499
 20
6.770130513990639
 30
0.0
 11
-39.12983376367048
 21
-66.57164944349442
 31
0.0
210
0.0
220
0.0
230
1.0
 40
0.3454915028125264
 41
-3.141588698245639
 42
-2.10218597845525
1001
DBPROPERTIES
1002
{
1000
PbHidd
1002
}
  0
ELLIPSE
  5
234
330
1F
100
AcDbEntity
  8
HIDDEN
100
AcDbEllipse
 10
-200.4180339887499
 20
6.770130513990639
 30
0.0
 11
-39.12983376367048
 21
-66.57164944349442
 31
0.0
210
0.0
220
0.0
230
1.0
 40
0.3454915028125264
 41
2.959268852328305
 42
3.141596608933947
1001
DBPROPERTIES
1002
{
1000
PbHidd
1002
}
  0
ELLIPSE
  5
235
330
1F
100
AcDbEntity
  8
HIDDEN
100
AcDbEllipse
 10
-200.4180339887499
 20
46.33983369831993
 30
0.0
 11
-5.016645354316729
 21
-8.534826851730056
 31
0.0
210
0.0
220
0.0
230
1.0
 40
0.3454915028125264
 41
0.0000477784657198
 42
0.2540085117370962
1001
DBPROPERTIES
1002
{
1000
PbHidd
1002
}
  0
ELLIPSE
  5
236
330
1F
100
AcDbEntity
  8
HIDDEN
100
AcDbEllipse
 10
-200.4180339887499
 20
46.33983369831993
 30
0.0
 11
-5.016645354316729
 21
-8.534826851730056
 31
0.0
210
0.0
220
0.0
230
1.0
 40
0.3454915028125264
 41
-2.10218597845525
 42
0.0000477784657198
1001
DBPROPERTIES
1002
{
1000
PbHidd
1002
}
  0
LINE
  5
237
330
1F
100
AcDbEntity
  8
HIDDEN
100
AcDbLine
 10
-175.9442377554542
 20
39.58815641657817
 30
0.0
 11
-156.1485010155555
 21
68.83609216073238
 31
0.0
1001
DBPROPERTIES
1002
{
1000
PbHidd
1002
}
  0
LINE
  5
238
330
1F
100
AcDbEntity
  8
HIDDEN
100
AcDbLine
 10
-156.1485010155555
 20
68.83609216073242
 30
0.0
 11
-157.7665350043054
 21
69.78714867702757
 31
0.0
1001
DBPROPERTIES
1002
{
1000
PbHidd
1002
}
  0
LINE
  5
239
330
1F
100
AcDbEntity
  8
HIDDEN
100
AcDbLine
 10
-202.9147066839968
 20
36.69227727064374
 30
0.0
 11
-200.59024645575
 21
19.25153637757926
 31
0.0
1001
DBPROPERTIES
1002
{
1000
PbHidd
1002
}
  0
LINE
  5
23A
330
1F
100
AcDbEntity
  8
HIDDEN
100
AcDbLine
 10
-202.9147066839968
 20
36.69227727064375
 30
0.0
 11
-204.5327406727467
 21
37.6433337869389
 31
0.0
1001
DBPROPERTIES
1002
{
1000
PbHidd
1002
}
  0
LINE
  5
23B
330
1F
100
AcDbEntity
  8
HIDDEN
100
AcDbLine
 10
-198.8
 20
51.20785117972027
 30
0.0
 11
-200.4180339887499
 21
52.15890769601543
 31
0.0
1001
DBPROPERTIES
1002
{
1000
PbHidd
1002
}
  0
ELLIPSE
  5
23C
330
1F
100
AcDbEntity
  8
HIDDEN
100
AcDbEllipse
 10
-198.8
 20
45.38877718202477
 30
0.0
 11
5.016645354316729
 21
8.534826851730056
 31
0.0
210
0.0
220
0.0
230
1.0
 40
0.3454915028125264
 41
1.039406675134543
 42
3.141640432055513
1001
DBPROPERTIES
1002
{
1000
PbHidd
1002
}
  0
ELLIPSE
  5
23D
330
1F
100
AcDbEntity
  8
HIDDEN
100
AcDbEllipse
 10
-198.8
 20
45.38877718202477
 30
0.0
 11
5.016645354316729
 21
8.534826851730056
 31
0.0
210
0.0
220
0.0
230
1.0
 40
0.3454915028125264
 41
-3.141544875124074
 42
-2.887584141852698
1001
DBPROPERTIES
1002
{
1000
PbHidd
1002
}
  0
ELLIPSE
  5
23E
330
1F
100
AcDbEntity
  8
HIDDEN
100
AcDbEllipse
 10
-198.8
 20
5.819073997695486
 30
0.0
 11
39.12983376367048
 21
66.57164944349442
 31
0.0
210
0.0
220
0.0
230
1.0
 40
0.3454915028125264
 41
-0.1823238012614876
 42
0.0000039553441545
1001
DBPROPERTIES
1002
{
1000
PbHidd
1002
}
  0
ELLIPSE
  5
23F
330
1F
100
AcDbEntity
  8
HIDDEN
100
AcDbEllipse
 10
-198.8
 20
5.819073997695486
 30
0.0
 11
39.12983376367048
 21
66.57164944349442
 31
0.0
210
0.0
220
0.0
230
1.0
 40
0.3454915028125264
 41
0.0000039553441545
 42
1.039406675134543
1001
DBPROPERTIES
1002
{
1000
PbHidd
1002
}
  0
LINE
  5
240
330
1F
100
AcDbEntity
  8
HIDDEN
100
AcDbLine
 10
-202.162388811772
 20
-1.225327936709279
 30
0.0
 11
-204.5327406727467
 21
-4.487837383310114
 31
0.0
1001
DBPROPERTIES
1002
{
1000
PbHidd
1002
}
  0
LINE
  5
241
330
1F
100
AcDbEntity
  8
HIDDEN
100
AcDbLine
 10
-157.7665350043054
 20
59.88032258776892
 30
0.0
 11
-178.1998736762447
 21
31.75624466484723
 31
0.0
1001
DBPROPERTIES
1002
{
1000
PbHidd
1002
}
  0
LINE
  5
242
330
1F
100
AcDbEntity
  8
HIDDEN
100
AcDbLine
 10
-206.2371079864454
 20
-6.833697739727023
 30
0.0
 11
-204.5327406727467
 21
-4.487837383310112
 31
0.0
1001
DBPROPERTIES
1002
{
1000
PbHidd
1002
}
  0
LINE
  5
243
330
1F
100
AcDbEntity
  8
HIDDEN
100
AcDbLine
 10
-175.9442377554542
 20
31.45825793198051
 30
0.0
 11
-156.1485010155555
 21
58.70475208318398
 31
0.0
1001
DBPROPERTIES
1002
{
1000
PbHidd
1002
}
  0
LINE
  5
244
330
1F
100
AcDbEntity
  8
HIDDEN
100
AcDbLine
 10
-156.1485010155555
 20
58.70475208318401
 30
0.0
 11
-157.7665350043054
 21
59.88032258776896
 31
0.0
1001
DBPROPERTIES
1002
{
1000
PbHidd
1002
}
  0
LINE
  5
245
330
1F
100
AcDbEntity
  8
HIDDEN
100
AcDbLine
 10
-202.9147066839968
 20
-5.66340788789506
 30
0.0
 11
-200.59024645575
 21
-2.464062854881808
 31
0.0
1001
DBPROPERTIES
1002
{
1000
PbHidd
1002
}
  0
LINE
  5
246
330
1F
100
AcDbEntity
  8
HIDDEN
100
AcDbLine
 10
-202.9147066839968
 20
-5.663407887895059
 30
0.0
 11
-204.5327406727467
 21
-4.487837383310113
 31
0.0
1001
DBPROPERTIES
1002
{
1000
PbHidd
1002
}
  0
LINE
  5
247
330
1F
100
AcDbEntity
  8
HIDDEN
100
AcDbLine
 10
-198.8
 20
0.0000000000000106
 30
0.0
 11
-200.4180339887499
 21
1.175570504584956
 31
0.0
1001
DBPROPERTIES
1002
{
1000
PbHidd
1002
}
  0
LINE
  5
248
330
1F
100
AcDbEntity
  8
HIDDEN
100
AcDbLine
 10
-202.9147066839968
 20
-5.663407887895059
 30
0.0
 11
-204.6190739976955
 21
-8.00926824431197
 31
0.0
1001
DBPROPERTIES
1002
{
1000
PbHidd
1002
}
  0
ARC
  5
249
330
1F
100
AcDbEntity
  8
THICK
100
AcDbCircle
 10
0.0
 20
499.9303485112388
 30
0.0
 40
631.9303485112389
100
AcDbArc
 50
251.4019232855809
 51
288.5981141623558
1001
DBPROPERTIES
1002
{
1000
PbThick
1002
}
  0
LINE
  5
24A
330
1F
100
AcDbEntity
  8
HIDDEN
100
AcDbLine
 10
172.7
 20
-164.0
 30
0.0
 11
172.7
 21
-141.0
 31
0.0
1001
DBPROPERTIES
1002
{
1000
PbHidd
1002
}
  0
LINE
  5
24B
330
1F
100
AcDbEntity
  8
HIDDEN
100
AcDbLine
 10
172.7
 20
-164.0
 30
0.0
 11
172.7
 21
-141.0
 31
0.0
1001
DBPROPERTIES
1002
{
1000
PbHidd
1002
}
  0
LINE
  5
24C
330
1F
100
AcDbEntity
  8
HIDDEN
100
AcDbLine
 10
-167.3
 20
-164.0
 30
0.0
 11
-167.3
 21
-141.0
 31
0.0
1001
DBPROPERTIES
1002
{
1000
PbHidd
1002
}
  0
LINE
  5
24D
330
1F
100
AcDbEntity
  8
HIDDEN
100
AcDbLine
 10
-167.3
 20
-164.0
 30
0.0
 11
-167.3
 21
-141.0
 31
0.0
1001
DBPROPERTIES
1002
{
1000
PbHidd
1002
}
  0
ARC
  5
24E
330
1F
100
AcDbEntity
  8
THICK
100
AcDbCircle
 10
278.32
 20
-99.0
 30
0.0
 40
2.0
100
AcDbArc
 50
180.0000198478428
 51
0.0
1001
DBPROPERTIES
1002
{
1000
PbThick
1002
}
  0
ARC
  5
24F
330
1F
100
AcDbEntity
  8
THICK
100
AcDbCircle
 10
-278.3199999999999
 20
-99.0
 30
0.0
 40
2.0
100
AcDbArc
 50
180.0000198478428
 51
0.0
1001
DBPROPERTIES
1002
{
1000
PbThick
1002
}
  0
ARC
  5
250
330
1F
100
AcDbEntity
  8
HIDDEN
100
AcDbCircle
 10
0.0
 20
449.0275789957034
 30
0.0
 40
573.0275789957035
100
AcDbArc
 50
252.3415740695954
 51
287.6584060825618
1001
DBPROPERTIES
1002
{
1000
PbHidd
1002
}
  0
ARC
  5
251
330
1F
100
AcDbEntity
  8
HIDDEN
100
AcDbCircle
 10
0.0
 20
-449.0275789957034
 30
0.0
 40
573.0275789957035
100
AcDbArc
 50
72.34159391743823
 51
107.6584259304046
1001
DBPROPERTIES
1002
{
1000
PbHidd
1002
}
  0
ARC
  5
252
330
1F
100
AcDbEntity
  8
THICK
100
AcDbCircle
 10
-278.3199999999999
 20
99.0
 30
0.0
 40
2.0
100
AcDbArc
 50
0.0
 51
180.0000198478428
1001
DBPROPERTIES
1002
{
1000
PbThick
1002
}
  0
ARC
  5
253
330
1F
100
AcDbEntity
  8
THICK
100
AcDbCircle
 10
278.32
 20
99.0
 30
0.0
 40
2.0
100
AcDbArc
 50
0.0
 51
180.0000198478428
1001
DBPROPERTIES
1002
{
1000
PbThick
1002
}
  0
LINE
  5
254
330
1F
100
AcDbEntity
  8
HIDDEN
100
AcDbLine
 10
-172.6999969482422
 20
-164.0
 30
0.0
 11
-172.6999969482422
 21
-141.0
 31
0.0
1001
DBPROPERTIES
1002
{
1000
PbHidd
1002
}
  0
LINE
  5
255
330
1F
100
AcDbEntity
  8
HIDDEN
100
AcDbLine
 10
-172.6999969482422
 20
-164.0
 30
0.0
 11
-172.6999969482422
 21
-141.0
 31
0.0
1001
DBPROPERTIES
1002
{
1000
PbHidd
1002
}
  0
LINE
  5
256
330
1F
100
AcDbEntity
  8
HIDDEN
100
AcDbLine
 10
167.3000030517578
 20
-164.0
 30
0.0
 11
167.3000030517578
 21
-141.0
 31
0.0
1001
DBPROPERTIES
1002
{
1000
PbHidd
1002
}
  0
LINE
  5
257
330
1F
100
AcDbEntity
  8
HIDDEN
100
AcDbLine
 10
167.3000030517578
 20
-164.0
 30
0.0
 11
167.3000030517578
 21
-141.0
 31
0.0
1001
DBPROPERTIES
1002
{
1000
PbHidd
1002
}
  0
ARC
  5
258
330
1F
100
AcDbEntity
  8
THICK
100
AcDbCircle
 10
0.0
 20
-499.9303485112388
 30
0.0
 40
631.9303485112389
100
AcDbArc
 50
71.40188583764416
 51
108.5980767144192
1001
DBPROPERTIES
1002
{
1000
PbThick
1002
}
  0
LINE
  5
259
330
1F
100
AcDbEntity
  8
HIDDEN
100
AcDbLine
 10
-113.5999984741211
 20
39.59999999999999
 30
0.0
 11
-184.6000061035156
 21
39.6
 31
0.0
1001
DBPROPERTIES
1002
{
1000
PbHidd
1002
}
  0
ARC
  5
25A
330
1F
100
AcDbEntity
  8
HIDDEN
100
AcDbCircle
 10
-184.6
 20
-0.0000000000000052
 30
0.0
 40
39.6
100
AcDbArc
 50
262.1736444255993
 51
270.0000187239684
1001
DBPROPERTIES
1002
{
1000
PbHidd
1002
}
  0
LINE
  5
25B
330
1F
100
AcDbEntity
  8
HIDDEN
100
AcDbLine
 10
-205.4346779046322
 20
-52.97254836295024
 30
0.0
 11
-203.8166483637634
 21
-53.92360226484648
 31
0.0
1001
DBPROPERTIES
1002
{
1000
PbHidd
1002
}
  0
LINE
  5
25C
330
1F
100
AcDbEntity
  8
HIDDEN
100
AcDbLine
 10
-202.5867376788813
 20
-82.73685350885103
 30
0.0
 11
-200.9686990574682
 21
-83.1001258129514
 31
0.0
1001
DBPROPERTIES
1002
{
1000
PbHidd
1002
}
  0
LINE
  5
25D
330
1F
100
AcDbEntity
  8
HIDDEN
100
AcDbLine
 10
-183.5021577987085
 20
-85.1231501620529
 30
0.0
 11
-181.8841282588427
 21
-84.75987989688693
 31
0.0
1001
DBPROPERTIES
1002
{
1000
PbHidd
1002
}
  0
LINE
  5
25E
330
1F
100
AcDbEntity
  8
HIDDEN
100
AcDbLine
 10
-205.4345397949219
 20
-37.80492401123047
 30
0.0
 11
-203.8164978027344
 21
-36.85386657714844
 31
0.0
1001
DBPROPERTIES
1002
{
1000
PbHidd
1002
}
  0
LINE
  5
25F
330
1F
100
AcDbEntity
  8
HIDDEN
100
AcDbLine
 10
-161.288196273237
 20
-73.34177763465043
 30
0.0
 11
-159.6701667323682
 21
-72.39072373275418
 31
0.0
1001
DBPROPERTIES
1002
{
1000
PbHidd
1002
}
  0
LINE
  5
260
330
1F
100
AcDbEntity
  8
HIDDEN
100
AcDbLine
 10
-206.2371063232422
 20
6.83369779586792
 30
0.0
 11
-204.6190795898438
 21
8.009267807006836
 31
0.0
1001
DBPROPERTIES
1002
{
1000
PbHidd
1002
}
  0
LINE
  5
261
330
1F
100
AcDbEntity
  8
HIDDEN
100
AcDbLine
 10
-205.4347534179688
 20
52.97250366210938
 30
0.0
 11
-203.8167266845703
 21
53.92356109619141
 31
0.0
1001
DBPROPERTIES
1002
{
1000
PbHidd
1002
}
  0
LINE
  5
262
330
1F
100
AcDbEntity
  8
HIDDEN
100
AcDbLine
 10
-202.5866088867188
 20
82.73688507080078
 30
0.0
 11
-200.9685668945312
 21
83.10015106201172
 31
0.0
1001
DBPROPERTIES
1002
{
1000
PbHidd
1002
}
  0
LINE
  5
263
330
1F
100
AcDbEntity
  8
HIDDEN
100
AcDbLine
 10
-183.5021667480469
 20
85.12315368652344
 30
0.0
 11
-181.8841400146484
 21
84.75988006591797
 31
0.0
1001
DBPROPERTIES
1002
{
1000
PbHidd
1002
}
  0
LINE
  5
264
330
1F
100
AcDbEntity
  8
HIDDEN
100
AcDbLine
 10
-205.4346804051189
 20
37.80500747084854
 30
0.0
 11
-203.816640877243
 21
36.85394769873682
 31
0.0
1001
DBPROPERTIES
1002
{
1000
PbHidd
1002
}
  0
LINE
  5
265
330
1F
100
AcDbEntity
  8
HIDDEN
100
AcDbLine
 10
-161.2882843017578
 20
73.34183502197266
 30
0.0
 11
-159.6702575683594
 21
72.39077758789062
 31
0.0
1001
DBPROPERTIES
1002
{
1000
PbHidd
1002
}
  0
LINE
  5
266
330
1F
100
AcDbEntity
  8
HIDDEN
100
AcDbLine
 10
-206.2371068711682
 20
-6.833698550023334
 30
0.0
 11
-204.619077865755
 21
-8.009265434002229
 31
0.0
1001
DBPROPERTIES
1002
{
1000
PbHidd
1002
}
  0
LINE
  5
267
330
1F
100
AcDbEntity
  8
HIDDEN
100
AcDbLine
 10
-113.5999984741211
 20
-39.59999847412109
 30
0.0
 11
-184.6000061035156
 21
-39.59999847412109
 31
0.0
1001
DBPROPERTIES
1002
{
1000
PbHidd
1002
}
  0
ENDSEC
  0
SECTION
  2
OBJECTS
  0
DICTIONARY
  5
C
330
0
100
AcDbDictionary
  3
ACAD_GROUP
350
D
  3
ACAD_LAYOUT
350
1A
  3
ACAD_MATERIAL
350
43
  3
ACAD_MLEADERSTYLE
350
6B
  3
ACAD_MLINESTYLE
350
17
  3
ACAD_PLOTSETTINGS
350
19
  3
ACAD_SCALELIST
350
47
  3
ACAD_VISUALSTYLE
350
2A
  3
ACDBVARIABLEDICTIONARY
350
268
1001
ACAD
1000
TREAT_AS_HARD
1070
     0
  0
DICTIONARY
  5
D
102
{ACAD_REACTORS
330
C
102
}
330
C
100
AcDbDictionary
1001
ACAD
1000
TREAT_AS_HARD
1070
     0
  0
DICTIONARY
  5
1A
102
{ACAD_REACTORS
330
C
102
}
330
C
100
AcDbDictionary
1001
ACAD
1000
TREAT_AS_HARD
1070
     0
  0
DICTIONARY
  5
43
102
{ACAD_REACTORS
330
C
102
}
330
C
100
AcDbDictionary
  3
BYBLOCK
350
45
  3
BYLAYER
350
44
  3
GLOBAL
350
46
1001
ACAD
1000
TREAT_AS_HARD
1070
     0
  0
DICTIONARY
  5
6B
102
{ACAD_REACTORS
330
C
102
}
330
C
100
AcDbDictionary
  3
STANDARD
350
6C
1001
ACAD
1000
TREAT_AS_HARD
1070
     0
  0
DICTIONARY
  5
17
102
{ACAD_REACTORS
330
C
102
}
330
C
100
AcDbDictionary
  3
STANDARD
350
18
1001
ACAD
1000
TREAT_AS_HARD
1070
     0
  0
DICTIONARY
  5
19
102
{ACAD_REACTORS
330
C
102
}
330
C
100
AcDbDictionary
1001
ACAD
1000
TREAT_AS_HARD
1070
     0
  0
DICTIONARY
  5
47
102
{ACAD_REACTORS
330
C
102
}
330
C
100
AcDbDictionary
  3
A0
350
48
  3
A1
350
49
  3
A2
350
4A
  3
A3
350
4B
  3
A4
350
4C
  3
A5
350
4D
  3
A6
350
4E
  3
A7
350
4F
  3
A8
350
50
  3
A9
350
51
  3
B0
350
52
  3
B1
350
53
  3
B2
350
54
  3
B3
350
55
  3
B4
350
56
  3
B5
350
57
  3
B6
350
58
  3
B7
350
59
  3
B8
350
5A
  3
B9
350
5B
  3
C0
350
5C
  3
C1
350
5D
  3
C2
350
5E
  3
C3
350
5F
  3
C4
350
60
  3
C5
350
61
  3
C6
350
62
  3
C7
350
63
  3
C8
350
64
  3
C9
350
65
  3
D0
350
66
  3
D1
350
67
  3
D2
350
68
1001
ACAD
1000
TREAT_AS_HARD
1070
     0
  0
DICTIONARY
  5
2A
102
{ACAD_REACTORS
330
C
102
}
330
C
100
AcDbDictionary
  3
2DWIREFRAME
350
2F
  3
BASIC
350
32
  3
BRIGHTEN
350
36
  3
COLORCHANGE
350
3A
  3
CONCEPTUAL
350
34
  3
DIM
350
35
  3
EDGECOLOROFF
350
3D
  3
FACEPATTERN
350
39
  3
FLAT
350
2B
  3
FLATWITHEDGES
350
2C
  3
GOURAUD
350
2D
  3
GOURAUDWITHEDGES
350
2E
  3
HIDDEN
350
31
  3
JITTEROFF
350
3B
  3
LINEPATTERN
350
38
  3
OVERHANGOFF
350
3C
  3
REALISTIC
350
33
  3
SHADED
350
42
  3
SHADED_WITH_EDGES
350
41
  3
SHADES_OF_GRAY
350
3E
  3
SKETCHY
350
3F
  3
THICKEN
350
37
  3
WIREFRAME
350
30
  3
X-RAY
350
40
1001
ACAD
1000
TREAT_AS_HARD
1070
     0
  0
DICTIONARY
  5
268
102
{ACAD_REACTORS
330
C
102
}
330
C
100
AcDbDictionary
  3
CANNOSCALE
350
273
  3
CENTEREXE
350
26F
  3
CENTERLTYPEFILE
350
270
  3
CMLEADERSTYLE
350
26A
  3
CTABLESTYLE
350
269
  3
DIMASSOC
350
271
  3
HIDETEXT
350
272
  3
MSLTSCALE
350
274
  3
PSOLHEIGHT
350
26C
  3
PSOLWIDTH
350
26B
1001
ACAD
1000
TREAT_AS_HARD
1070
     0
  0
MATERIAL
  5
45
102
{ACAD_REACTORS
330
43
102
}
102
{ACAD_XDICTIONARY
360
277
102
}
330
43
100
AcDbMaterial
  1
BYBLOCK
  0
MATERIAL
  5
44
102
{ACAD_REACTORS
330
43
102
}
102
{ACAD_XDICTIONARY
360
275
102
}
330
43
100
AcDbMaterial
  1
BYLAYER
  0
MATERIAL
  5
46
102
{ACAD_REACTORS
330
43
102
}
102
{ACAD_XDICTIONARY
360
279
102
}
330
43
100
AcDbMaterial
  1
GLOBAL
  0
ACAD_PROXY_OBJECT
  5
6C
102
{ACAD_REACTORS
330
6B
102
}
330
6B
100
AcDbZombieObject
 90
      499
 91
      505
 93
      610
310
40901902A4063FBFFFFFE0000000000000020400000000000020404214DD185B99185C990000000000000104090141901A00000000000004100000000000000041025764000000000000039000
340
14
340
0
340
11
340
0
 94
        0
1001
ACAD_MLEADERVER
1070
     2
  0
MLINESTYLE
  5
18
102
{ACAD_REACTORS
330
17
102
}
330
17
100
AcDbMlineStyle
  2
Standard
 70
     0
  3

 62
   256
 51
90.0
 52
90.0
 71
     2
 49
0.5
 62
   256
  6
BYLAYER
 49
-0.5
 62
   256
  6
BYLAYER
  0
ACAD_PROXY_OBJECT
  5
48
102
{ACAD_REACTORS
330
47
102
}
330
47
100
AcDbZombieObject
 90
      499
 91
      503
 93
       41
310
903313A31580
  0
ACAD_PROXY_OBJECT
  5
49
102
{ACAD_REACTORS
330
47
102
}
330
47
100
AcDbZombieObject
 90
      499
 91
      503
 93
      105
310
903313A324000000000000004000
  0
ACAD_PROXY_OBJECT
  5
4A
102
{ACAD_REACTORS
330
47
102
}
330
47
100
AcDbZombieObject
 90
      499
 91
      503
 93
      105
310
903313A344000000000000104000
  0
ACAD_PROXY_OBJECT
  5
4B
102
{ACAD_REACTORS
330
47
102
}
330
47
100
AcDbZombieObject
 90
      499
 91
      503
 93
      105
310
903313A354000000000000144000
  0
ACAD_PROXY_OBJECT
  5
4C
102
{ACAD_REACTORS
330
47
102
}
330
47
100
AcDbZombieObject
 90
      499
 91
      503
 93
      105
310
903313A384000000000000204000
  0
ACAD_PROXY_OBJECT
  5
4D
102
{ACAD_REACTORS
330
47
102
}
330
47
100
AcDbZombieObject
 90
      499
 91
      503
 93
      113
310
904313A31304000000000000244000
  0
ACAD_PROXY_OBJECT
  5
4E
102
{ACAD_REACTORS
330
47
102
}
330
47
100
AcDbZombieObject
 90
      499
 91
      503
 93
      113
310
904313A31364000000000000304000
  0
ACAD_PROXY_OBJECT
  5
4F
102
{ACAD_REACTORS
330
47
102
}
330
47
100
AcDbZombieObject
 90
      499
 91
      503
 93
      113
310
904313A32304000000000000344000
  0
ACAD_PROXY_OBJECT
  5
50
102
{ACAD_REACTORS
330
47
102
}
330
47
100
AcDbZombieObject
 90
      499
 91
      503
 93
      113
310
904313A333040000000000003E4000
  0
ACAD_PROXY_OBJECT
  5
51
102
{ACAD_REACTORS
330
47
102
}
330
47
100
AcDbZombieObject
 90
      499
 91
      503
 93
      113
310
904313A34304000000000000444000
  0
ACAD_PROXY_OBJECT
  5
52
102
{ACAD_REACTORS
330
47
102
}
330
47
100
AcDbZombieObject
 90
      499
 91
      503
 93
      113
310
904313A35304000000000000494000
  0
ACAD_PROXY_OBJECT
  5
53
102
{ACAD_REACTORS
330
47
102
}
330
47
100
AcDbZombieObject
 90
      499
 91
      503
 93
      121
310
905313A3130304000000000000594000
  0
ACAD_PROXY_OBJECT
  5
54
102
{ACAD_REACTORS
330
47
102
}
330
47
100
AcDbZombieObject
 90
      499
 91
      503
 93
      105
310
903323A310000000000000010100
  0
ACAD_PROXY_OBJECT
  5
55
102
{ACAD_REACTORS
330
47
102
}
330
47
100
AcDbZombieObject
 90
      499
 91
      503
 93
      105
310
903343A310000000000000410100
  0
ACAD_PROXY_OBJECT
  5
56
102
{ACAD_REACTORS
330
47
102
}
330
47
100
AcDbZombieObject
 90
      499
 91
      503
 93
      105
310
903383A310000000000000810100
  0
ACAD_PROXY_OBJECT
  5
57
102
{ACAD_REACTORS
330
47
102
}
330
47
100
AcDbZombieObject
 90
      499
 91
      503
 93
      113
310
90431303A310000000000000910100
  0
ACAD_PROXY_OBJECT
  5
58
102
{ACAD_REACTORS
330
47
102
}
330
47
100
AcDbZombieObject
 90
      499
 91
      503
 93
      121
310
9053130303A310000000000001650100
  0
ACAD_PROXY_OBJECT
  5
59
102
{ACAD_REACTORS
330
47
102
}
330
47
100
AcDbZombieObject
 90
      499
 91
      503
 93
      257
310
90E312F31323822203D2031272D3022000000000000200FC000000000000284000
  0
ACAD_PROXY_OBJECT
  5
5A
102
{ACAD_REACTORS
330
47
102
}
330
47
100
AcDbZombieObject
 90
      499
 91
      503
 93
      249
310
90D312F363422203D2031272D3022000000000000240FC000000000000284000
  0
ACAD_PROXY_OBJECT
  5
5B
102
{ACAD_REACTORS
330
47
102
}
330
47
100
AcDbZombieObject
 90
      499
 91
      503
 93
      249
310
90D312F333222203D2031272D3022000000000000280FC000000000000284000
  0
ACAD_PROXY_OBJECT
  5
5C
102
{ACAD_REACTORS
330
47
102
}
330
47
100
AcDbZombieObject
 90
      499
 91
      503
 93
      249
310
90D312F313622203D2031272D30220000000000002C0FC000000000000284000
  0
ACAD_PROXY_OBJECT
  5
5D
102
{ACAD_REACTORS
330
47
102
}
330
47
100
AcDbZombieObject
 90
      499
 91
      503
 93
      249
310
90D332F333222203D2031272D30220000000000002E0FC000000000000284000
  0
ACAD_PROXY_OBJECT
  5
5E
102
{ACAD_REACTORS
330
47
102
}
330
47
100
AcDbZombieObject
 90
      499
 91
      503
 93
      241
310
90C312F3822203D2031272D3022000000000000300FC000000000000284000
  0
ACAD_PROXY_OBJECT
  5
5F
102
{ACAD_REACTORS
330
47
102
}
330
47
100
AcDbZombieObject
 90
      499
 91
      503
 93
      249
310
90D332F313622203D2031272D3022000000000000320FC000000000000284000
  0
ACAD_PROXY_OBJECT
  5
60
102
{ACAD_REACTORS
330
47
102
}
330
47
100
AcDbZombieObject
 90
      499
 91
      503
 93
      241
310
90C312F3422203D2031272D3022000000000000340FC000000000000284000
  0
ACAD_PROXY_OBJECT
  5
61
102
{ACAD_REACTORS
330
47
102
}
330
47
100
AcDbZombieObject
 90
      499
 91
      503
 93
      241
310
90C332F3822203D2031272D3022000000000000360FC000000000000284000
  0
ACAD_PROXY_OBJECT
  5
62
102
{ACAD_REACTORS
330
47
102
}
330
47
100
AcDbZombieObject
 90
      499
 91
      503
 93
      241
310
90C312F3222203D2031272D3022000000000000380FC000000000000284000
  0
ACAD_PROXY_OBJECT
  5
63
102
{ACAD_REACTORS
330
47
102
}
330
47
100
AcDbZombieObject
 90
      499
 91
      503
 93
      241
310
90C332F3422203D2031272D30220000000000003A0FC000000000000284000
  0
ACAD_PROXY_OBJECT
  5
64
102
{ACAD_REACTORS
330
47
102
}
330
47
100
AcDbZombieObject
 90
      499
 91
      503
 93
      161
310
90A3122203D2031272D30224000000000000284000
  0
ACAD_PROXY_OBJECT
  5
65
102
{ACAD_REACTORS
330
47
102
}
330
47
100
AcDbZombieObject
 90
      499
 91
      503
 93
      257
310
90E312D312F3222203D2031272D30220000000000003E0FC000000000000284000
  0
ACAD_PROXY_OBJECT
  5
66
102
{ACAD_REACTORS
330
47
102
}
330
47
100
AcDbZombieObject
 90
      499
 91
      503
 93
      225
310
90A3322203D2031272D302200000000000002100000000000000284000
  0
ACAD_PROXY_OBJECT
  5
67
102
{ACAD_REACTORS
330
47
102
}
330
47
100
AcDbZombieObject
 90
      499
 91
      503
 93
      225
310
90A3622203D2031272D302200000000000006100000000000000284000
  0
ACAD_PROXY_OBJECT
  5
68
102
{ACAD_REACTORS
330
47
102
}
330
47
100
AcDbZombieObject
 90
      499
 91
      503
 93
      249
310
90D31272D3022203D2031272D30220000000000000A100000000000000284000
  0
ACAD_PROXY_OBJECT
  5
2F
102
{ACAD_REACTORS
330
2A
102
}
330
2A
100
AcDbZombieObject
 90
      499
 91
      501
 93
      436
310
42CC9915DA5C99599C985B595049028333333333333E33F0000000000000F90107901411070040501600405405064090741402480A0340
1001
ACAD
1000
AcDbSavedByObjectVersion
1070
     0
  0
ACAD_PROXY_OBJECT
  5
32
102
{ACAD_REACTORS
330
2A
102
}
330
2A
100
AcDbZombieObject
 90
      499
 91
      501
 93
      388
310
4150985CDA58D07406404333333333333E33F0000000000000F90107A41107004050150841D405064090741402480A0350
1001
ACAD
1000
AcDbSavedByObjectVersion
1070
     0
  0
ACAD_PROXY_OBJECT
  5
36
102
{ACAD_REACTORS
330
2A
102
}
330
2A
100
AcDbZombieObject
 90
      499
 91
      501
 93
      428
310
42109C9A59DA1D195B90C409028333333333333E33F0000000000000F9010790141107004050150841D405064090741402480A029950
1001
ACAD
1000
AcDbSavedByObjectVersion
1070
     0
  0
ACAD_PROXY_OBJECT
  5
3A
102
{ACAD_REACTORS
330
2A
102
}
330
2A
100
AcDbZombieObject
 90
      499
 91
      501
 93
      452
310
42D0DBDB1BDC90DA185B99D95104090240C333333333333E33F0000000000000F90108901411070040501508421405064090741402480A0350
1001
ACAD
1000
AcDbSavedByObjectVersion
1070
     0
  0
ACAD_PROXY_OBJECT
  5
34
102
{ACAD_REACTORS
330
2A
102
}
330
2A
100
AcDbZombieObject
 90
      499
 91
      501
 93
      500
310
4290DBDB98D95C1D1D585B10940D028333333333333E33F0000000000000F90107902409070040501000000000018199010841D405064090740C02480A0340
1001
ACAD
1000
AcDbSavedByObjectVersion
1070
     0
  0
ACAD_PROXY_OBJECT
  5
35
102
{ACAD_REACTORS
330
2A
102
}
330
2A
100
AcDbZombieObject
 90
      499
 91
      501
 93
      412
310
40D11A5B50B409028333333333333E33F0000000000000F9010790141107004050150841D405064090741402480A02677FFFFFD0
1001
ACAD
1000
AcDbSavedByObjectVersion
1070
     0
  0
ACAD_PROXY_OBJECT
  5
3D
102
{ACAD_REACTORS
330
2A
102
}
330
2A
100
AcDbZombieObject
 90
      499
 91
      501
 93
      452
310
43115919D950DBDB1BDC93D999916409028333333333333E33F0000000000000F9010790141107004050150841D405064090741402480A0350
1001
ACAD
1000
AcDbSavedByObjectVersion
1070
     0
  0
ACAD_PROXY_OBJECT
  5
39
102
{ACAD_REACTORS
330
2A
102
}
330
2A
100
AcDbZombieObject
 90
      499
 91
      501
 93
      444
310
42D19858D95C185D1D195C9B90F409028333333333333E33F0000000000000F9010790141107004050150841D405064090741402480A0350
1001
ACAD
1000
AcDbSavedByObjectVersion
1070
     0
  0
ACAD_PROXY_OBJECT
  5
2B
102
{ACAD_REACTORS
330
2A
102
}
330
2A
100
AcDbZombieObject
 90
      499
 91
      501
 93
      380
310
41119B185D240901404333333333333E33F0000000000000F9010740A907004050150841D405064090741402480A1B50
1001
ACAD
1000
AcDbSavedByObjectVersion
1070
     0
  0
ACAD_PROXY_OBJECT
  5
2C
102
{ACAD_REACTORS
330
2A
102
}
330
2A
100
AcDbZombieObject
 90
      499
 91
      501
 93
      468
310
43519B185D15DA5D1A115919D95CD0140901404333333333333E33F0000000000000F90107409019070040501600405405064090741402480A1B50
1001
ACAD
1000
AcDbSavedByObjectVersion
1070
     0
  0
ACAD_PROXY_OBJECT
  5
2D
102
{ACAD_REACTORS
330
2A
102
}
330
2A
100
AcDbZombieObject
 90
      499
 91
      501
 93
      404
310
41D1DBDD5C985D5910240902404333333333333E33F0000000000000F9010740A9070040501641D405064090741402480A1B50
1001
ACAD
1000
AcDbSavedByObjectVersion
1070
     0
  0
ACAD_PROXY_OBJECT
  5
2E
102
{ACAD_REACTORS
330
2A
102
}
330
2A
100
AcDbZombieObject
 90
      499
 91
      501
 93
      492
310
4411DBDD5C985D5915DA5D1A115919D95CD0340902404333333333333E33F0000000000000F90107409019070040501600405405064090741402480A1B50
1001
ACAD
1000
AcDbSavedByObjectVersion
1070
     0
  0
ACAD_PROXY_OBJECT
  5
31
102
{ACAD_REACTORS
330
2A
102
}
330
2A
100
AcDbZombieObject
 90
      499
 91
      501
 93
      476
310
41921A5919195B90640502408333333333333E33F0000000000000F901079024090700405020000000000001110200405405064090740C02480A0340
1001
ACAD
1000
AcDbSavedByObjectVersion
1070
     0
  0
ACAD_PROXY_OBJECT
  5
3B
102
{ACAD_REACTORS
330
2A
102
}
330
2A
100
AcDbZombieObject
 90
      499
 91
      501
 93
      428
310
42529A5D1D195C93D999914409028333333333333E33F0000000000000F9010790141107004050150A41D405064090741402480A0350
1001
ACAD
1000
AcDbSavedByObjectVersion
1070
     0
  0
ACAD_PROXY_OBJECT
  5
38
102
{ACAD_REACTORS
330
2A
102
}
330
2A
100
AcDbZombieObject
 90
      499
 91
      501
 93
      444
310
42D31A5B995C185D1D195C9B90E409028333333333333E33F0000000000000F9010790141107004050750841D405064090741402483A0350
1001
ACAD
1000
AcDbSavedByObjectVersion
1070
     0
  0
ACAD_PROXY_OBJECT
  5
3C
102
{ACAD_REACTORS
330
2A
102
}
330
2A
100
AcDbZombieObject
 90
      499
 91
      501
 93
      444
310
42D3DD995C9A185B99D3D999915409028333333333333E33F0000000000000F9010790141107004050150941D405064090741402480A0350
1001
ACAD
1000
AcDbSavedByObjectVersion
1070
     0
  0
ACAD_PROXY_OBJECT
  5
33
102
{ACAD_REACTORS
330
2A
102
}
330
2A
100
AcDbZombieObject
 90
      499
 91
      501
 93
      428
310
425499585B1A5CDD1A58D08409038333333333333E33F0000000000000F9010740A907004050150800405405064090740C02480A1B40
1001
ACAD
1000
AcDbSavedByObjectVersion
1070
     0
  0
ACAD_PROXY_OBJECT
  5
42
102
{ACAD_REACTORS
330
2A
102
}
330
2A
100
AcDbZombieObject
 90
      499
 91
      501
 93
      420
310
4194DA1859195911B40902404333333333333E33F0000000000000F9010740A41107004050150800405405064090840C02480A0B40
1001
ACAD
1000
AcDbSavedByObjectVersion
1070
     0
  0
ACAD_PROXY_OBJECT
  5
41
102
{ACAD_REACTORS
330
2A
102
}
330
2A
100
AcDbZombieObject
 90
      499
 91
      501
 93
      516
310
4454DA18591959081DDA5D1A08195919D95CD1A40902404333333333333E33F0000000000000F901074090142907004050250800405405064090740C02480A0B40
1001
ACAD
1000
AcDbSavedByObjectVersion
1070
     0
  0
ACAD_PROXY_OBJECT
  5
3E
102
{ACAD_REACTORS
330
2A
102
}
330
2A
100
AcDbZombieObject
 90
      499
 91
      501
 93
      532
310
4394DA1859195CC81BD98811DC985E5174090240C333333333333E33F0000000000000F901079024090741D01000000000000111010841D405064090740C02480A0340
1001
ACAD
1000
AcDbSavedByObjectVersion
1070
     0
  0
ACAD_PROXY_OBJECT
  5
3F
102
{ACAD_REACTORS
330
2A
102
}
330
2A
100
AcDbZombieObject
 90
      499
 91
      501
 93
      476
310
41D4DAD95D18DA1E51840502408333333333333E33F0000000000000F901079024090741D01000000000000111010B41D405064090741802480A0340
1001
ACAD
1000
AcDbSavedByObjectVersion
1070
     0
  0
ACAD_PROXY_OBJECT
  5
37
102
{ACAD_REACTORS
330
2A
102
}
330
2A
100
AcDbZombieObject
 90
      499
 91
      501
 93
      412
310
41D51A1A58DAD95B90D409028333333333333E33F0000000000000F9010790141107004050150C41D405064090741402480A0350
1001
ACAD
1000
AcDbSavedByObjectVersion
1070
     0
  0
ACAD_PROXY_OBJECT
  5
30
102
{ACAD_REACTORS
330
2A
102
}
330
2A
100
AcDbZombieObject
 90
      499
 91
      501
 93
      420
310
4255DA5C99599C985B595059028333333333333E33F0000000000000F90107901411070040501600405405064090740C02480A0340
1001
ACAD
1000
AcDbSavedByObjectVersion
1070
     0
  0
ACAD_PROXY_OBJECT
  5
40
102
{ACAD_REACTORS
330
2A
102
}
330
2A
100
AcDbZombieObject
 90
      499
 91
      501
 93
      404
310
41560B54985E51940902404000000000000E03F0000000000000F9010740501907004050150841D405064090740C02480A1B40
1001
ACAD
1000
AcDbSavedByObjectVersion
1070
     0
  0
DICTIONARYVAR
  5
273
102
{ACAD_REACTORS
330
268
102
}
330
268
100
DictionaryVariables
280
     0
  1
1:1
  0
DICTIONARYVAR
  5
26F
102
{ACAD_REACTORS
330
268
102
}
330
268
100
DictionaryVariables
280
     0
  1
3.500000
  0
DICTIONARYVAR
  5
270
102
{ACAD_REACTORS
330
268
102
}
330
268
100
DictionaryVariables
280
     0
  1
acadiso.lin
  0
DICTIONARYVAR
  5
26A
102
{ACAD_REACTORS
330
268
102
}
330
268
100
DictionaryVariables
280
     0
  1
Standard
  0
DICTIONARYVAR
  5
269
102
{ACAD_REACTORS
330
268
102
}
330
268
100
DictionaryVariables
280
     0
  1
Standard
  0
DICTIONARYVAR
  5
271
102
{ACAD_REACTORS
330
268
102
}
330
268
100
DictionaryVariables
280
     0
  1
2
  0
DICTIONARYVAR
  5
272
102
{ACAD_REACTORS
330
268
102
}
330
268
100
DictionaryVariables
280
     0
  1
1
  0
DICTIONARYVAR
  5
274
102
{ACAD_REACTORS
330
268
102
}
330
268
100
DictionaryVariables
280
     0
  1
1
  0
DICTIONARYVAR
  5
26C
102
{ACAD_REACTORS
330
268
102
}
330
268
100
DictionaryVariables
280
     0
  1
80.000000
  0
DICTIONARYVAR
  5
26B
102
{ACAD_REACTORS
330
268
102
}
330
268
100
DictionaryVariables
280
     0
  1
5.000000
  0
DICTIONARY
  5
277
330
45
100
AcDbDictionary
  3
ACAD_XREC_ROUNDTRIP
360
278
1001
ACAD
1000
TREAT_AS_HARD
1070
     1
  0
DICTIONARY
  5
275
330
44
100
AcDbDictionary
  3
ACAD_XREC_ROUNDTRIP
360
276
1001
ACAD
1000
TREAT_AS_HARD
1070
     1
  0
DICTIONARY
  5
279
330
46
100
AcDbDictionary
  3
ACAD_XREC_ROUNDTRIP
360
27A
1001
ACAD
1000
TREAT_AS_HARD
1070
     1
  0
XRECORD
  5
278
102
{ACAD_REACTORS
330
277
102
}
330
277
100
AcDbXrecord
102
MATERIAL
148
0.0
149
0.0
149
0.0
 93
        0
 94
      127
282
     0
 72
     1
 77
     1
171
     1
175
     1
179
     1
273
     0
  0
XRECORD
  5
276
102
{ACAD_REACTORS
330
275
102
}
330
275
100
AcDbXrecord
102
MATERIAL
148
0.0
149
0.0
149
0.0
 93
        0
 94
      127
282
     0
 72
     1
 77
     1
171
     1
175
     1
179
     1
273
     0
  0
XRECORD
  5
27A
102
{ACAD_REACTORS
330
279
102
}
330
279
100
AcDbXrecord
102
MATERIAL
148
0.0
149
0.0
149
0.0
 93
        0
 94
      127
282
     0
 72
     1
 77
     1
171
     1
175
     1
179
     1
273
     0
  0
ENDSEC
  0
EOF
