  0
SECTION
  2
HEADER
  9
$ACADVER
  1
AC1012
  9
$DWGCODEPAGE
  3
ansi_1252
  9
$INSBASE
 10
0.0
 20
0.0
 30
0.0
  9
$EXTMIN
 10
1.000000000000000E+20
 20
1.000000000000000E+20
 30
1.000000000000000E+20
  9
$EXTMAX
 10
-1.000000000000000E+20
 20
-1.000000000000000E+20
 30
-1.000000000000000E+20
  9
$LIMMIN
 10
0.0
 20
0.0
  9
$LIMMAX
 10
420.0
 20
297.0
  9
$ORTHOMODE
 70
     0
  9
$REGENMODE
 70
     1
  9
$FILLMODE
 70
     1
  9
$QTEXTMODE
 70
     0
  9
$MIRRTEXT
 70
     1
  9
$DRAGMODE
 70
     2
  9
$LTSCALE
 40
1.0
  9
$OSMODE
 70
    37
  9
$ATTMODE
 70
     1
  9
$TEXTSIZE
 40
2.5
  9
$TRACEWID
 40
1.0
  9
$TEXTSTYLE
  7
STANDARD
  9
$CLAYER
  8
0
  9
$CELTYPE
  6
BYLAYER
  9
$CECOLOR
 62
   256
  9
$CELTSCALE
 40
1.0
  9
$DELOBJ
 70
     1
  9
$DISPSILH
 70
     0
  9
$DIMSCALE
 40
1.0
  9
$DIMASZ
 40
2.5
  9
$DIMEXO
 40
0.625
  9
$DIMDLI
 40
3.75
  9
$DIMRND
 40
0.0
  9
$DIMDLE
 40
0.0
  9
$DIMEXE
 40
1.25
  9
$DIMTP
 40
0.0
  9
$DIMTM
 40
0.0
  9
$DIMTXT
 40
2.5
  9
$DIMCEN
 40
2.5
  9
$DIMTSZ
 40
0.0
  9
$DIMTOL
 70
     0
  9
$DIMLIM
 70
     0
  9
$DIMTIH
 70
     0
  9
$DIMTOH
 70
     0
  9
$DIMSE1
 70
     0
  9
$DIMSE2
 70
     0
  9
$DIMTAD
 70
     1
  9
$DIMZIN
 70
     8
  9
$DIMBLK
  1

  9
$DIMASO
 70
     1
  9
$DIMSHO
 70
     1
  9
$DIMPOST
  1

  9
$DIMAPOST
  1

  9
$DIMALT
 70
     0
  9
$DIMALTD
 70
     3
  9
$DIMALTF
 40
0.03937007874016
  9
$DIMLFAC
 40
1.0
  9
$DIMTOFL
 70
     1
  9
$DIMTVP
 40
0.0
  9
$DIMTIX
 70
     0
  9
$DIMSOXD
 70
     0
  9
$DIMSAH
 70
     0
  9
$DIMBLK1
  1

  9
$DIMBLK2
  1

  9
$DIMSTYLE
  2
ISO-25
  9
$DIMCLRD
 70
     0
  9
$DIMCLRE
 70
     0
  9
$DIMCLRT
 70
     0
  9
$DIMTFAC
 40
1.0
  9
$DIMGAP
 40
0.625
  9
$DIMJUST
 70
     0
  9
$DIMSD1
 70
     0
  9
$DIMSD2
 70
     0
  9
$DIMTOLJ
 70
     0
  9
$DIMTZIN
 70
     8
  9
$DIMALTZ
 70
     0
  9
$DIMALTTZ
 70
     0
  9
$DIMFIT
 70
     3
  9
$DIMUPT
 70
     0
  9
$DIMUNIT
 70
     2
  9
$DIMDEC
 70
     2
  9
$DIMTDEC
 70
     2
  9
$DIMALTU
 70
     2
  9
$DIMALTTD
 70
     3
  9
$DIMTXSTY
  7
STANDARD
  9
$DIMAUNIT
 70
     0
  9
$LUNITS
 70
     2
  9
$LUPREC
 70
     4
  9
$SKETCHINC
 40
1.0
  9
$FILLETRAD
 40
10.0
  9
$AUNITS
 70
     0
  9
$AUPREC
 70
     0
  9
$MENU
  1
.
  9
$ELEVATION
 40
0.0
  9
$PELEVATION
 40
0.0
  9
$THICKNESS
 40
0.0
  9
$LIMCHECK
 70
     0
  9
$CHAMFERA
 40
0.0
  9
$CHAMFERB
 40
0.0
  9
$CHAMFERC
 40
0.0
  9
$CHAMFERD
 40
0.0
  9
$SKPOLY
 70
     0
  9
$TDCREATE
 40
2458051.656402871
  9
$TDUPDATE
 40
2458051.656405405
  9
$TDINDWG
 40
0.0000000116
  9
$TDUSRTIMER
 40
0.0000000116
  9
$USRTIMER
 70
     1
  9
$ANGBASE
 50
0.0
  9
$ANGDIR
 70
     0
  9
$PDMODE
 70
     0
  9
$PDSIZE
 40
0.0
  9
$PLINEWID
 40
0.0
  9
$COORDS
 70
     1
  9
$SPLFRAME
 70
     0
  9
$SPLINETYPE
 70
     6
  9
$SPLINESEGS
 70
     8
  9
$ATTDIA
 70
     0
  9
$ATTREQ
 70
     1
  9
$HANDLING
 70
     1
  9
$HANDSEED
  5
27C
  9
$SURFTAB1
 70
     6
  9
$SURFTAB2
 70
     6
  9
$SURFTYPE
 70
     6
  9
$SURFU
 70
     6
  9
$SURFV
 70
     6
  9
$UCSNAME
  2

  9
$UCSORG
 10
0.0
 20
0.0
 30
0.0
  9
$UCSXDIR
 10
1.0
 20
0.0
 30
0.0
  9
$UCSYDIR
 10
0.0
 20
1.0
 30
0.0
  9
$PUCSNAME
  2

  9
$PUCSORG
 10
0.0
 20
0.0
 30
0.0
  9
$PUCSXDIR
 10
1.0
 20
0.0
 30
0.0
  9
$PUCSYDIR
 10
0.0
 20
1.0
 30
0.0
  9
$USERI1
 70
     0
  9
$USERI2
 70
     0
  9
$USERI3
 70
     0
  9
$USERI4
 70
     0
  9
$USERI5
 70
     0
  9
$USERR1
 40
0.0
  9
$USERR2
 40
0.0
  9
$USERR3
 40
0.0
  9
$USERR4
 40
0.0
  9
$USERR5
 40
0.0
  9
$WORLDVIEW
 70
     1
  9
$SHADEDGE
 70
     3
  9
$SHADEDIF
 70
    70
  9
$TILEMODE
 70
     1
  9
$MAXACTVP
 70
    64
  9
$PINSBASE
 10
0.0
 20
0.0
 30
0.0
  9
$PLIMCHECK
 70
     0
  9
$PEXTMIN
 10
1.000000000000000E+20
 20
1.000000000000000E+20
 30
1.000000000000000E+20
  9
$PEXTMAX
 10
-1.000000000000000E+20
 20
-1.000000000000000E+20
 30
-1.000000000000000E+20
  9
$PLIMMIN
 10
0.0
 20
0.0
  9
$PLIMMAX
 10
420.0
 20
297.0
  9
$UNITMODE
 70
     0
  9
$VISRETAIN
 70
     1
  9
$PLINEGEN
 70
     0
  9
$PSLTSCALE
 70
     1
  9
$TREEDEPTH
 70
  3020
  9
$PICKSTYLE
 70
     1
  9
$CMLSTYLE
  2
STANDARD
  9
$CMLJUST
 70
     0
  9
$CMLSCALE
 40
20.0
  9
$SAVEIMAGES
 70
     1
  0
ENDSEC
  0
SECTION
  2
CLASSES
  0
CLASS
  1
ACDBDICTIONARYWDFLT
  2
AcDbDictionaryWithDefault
  3
ObjectDBX Classes
 90
    32768
280
     0
281
     0
  0
CLASS
  1
VISUALSTYLE
  2
AcDbVisualStyle
  3
ObjectDBX Classes
 90
     4095
280
     0
281
     0
  0
CLASS
  1
MATERIAL
  2
AcDbMaterial
  3
ObjectDBX Classes
 90
     1153
280
     0
281
     0
  0
CLASS
  1
SCALE
  2
AcDbScale
  3
ObjectDBX Classes
 90
     1153
280
     0
281
     0
  0
CLASS
  1
TABLESTYLE
  2
AcDbTableStyle
  3
ObjectDBX Classes
 90
     4095
280
     0
281
     0
  0
CLASS
  1
MLEADERSTYLE
  2
AcDbMLeaderStyle
  3
ACDB_MLEADERSTYLE_CLASS
 90
     4095
280
     0
281
     0
  0
CLASS
  1
SUN
  2
AcDbSun
  3
SCENEOE
 90
     1153
280
     0
281
     0
  0
CLASS
  1
DICTIONARYVAR
  2
AcDbDictionaryVar
  3
ObjectDBX Classes
 90
        0
280
     0
281
     0
  0
CLASS
  1
XRECORD
  2
AcDbXrecord
  3
ObjectDBX Classes
 90
    32768
280
     0
281
     0
  0
CLASS
  1
LWPOLYLINE
  2
AcDbPolyline
  3
ObjectDBX Classes
 90
    32768
280
     0
281
     1
  0
CLASS
  1
HATCH
  2
AcDbHatch
  3
ObjectDBX Classes
 90
    32768
280
     0
281
     1
  0
CLASS
  1
ACDBPLACEHOLDER
  2
AcDbPlaceHolder
  3
ObjectDBX Classes
 90
        0
280
     0
281
     0
  0
CLASS
  1
LAYOUT
  2
AcDbLayout
  3
ObjectDBX Classes
 90
        0
280
     0
281
     0
  0
ENDSEC
  0
SECTION
  2
TABLES
  0
TABLE
  2
VPORT
  5
8
330
0
100
AcDbSymbolTable
 70
     1
  0
VPORT
  5
29
330
8
100
AcDbSymbolTableRecord
100
AcDbViewportTableRecord
  2
*ACTIVE
 70
     0
 10
0.0
 20
0.0
 11
1.0
 21
1.0
 12
-0.0000000000001705
 22
0.5
 13
0.0
 23
0.0
 14
10.0
 24
10.0
 15
10.0
 25
10.0
 16
0.0
 26
0.0
 36
1.0
 17
0.0
 27
0.0
 37
0.0
 40
1532.55
 41
1.601331114808652
 42
50.0
 43
0.0
 44
0.0
 50
0.0
 51
0.0
 71
     0
 72
   100
 73
     1
 74
     3
 75
     0
 76
     0
 77
     0
 78
     0
  0
ENDTAB
  0
TABLE
  2
LTYPE
  5
5
330
0
100
AcDbSymbolTable
 70
     1
  0
LTYPE
  5
14
330
5
100
AcDbSymbolTableRecord
100
AcDbLinetypeTableRecord
  2
BYBLOCK
 70
     0
  3

 72
    65
 73
     0
 40
0.0
  0
LTYPE
  5
15
330
5
100
AcDbSymbolTableRecord
100
AcDbLinetypeTableRecord
  2
BYLAYER
 70
     0
  3

 72
    65
 73
     0
 40
0.0
  0
LTYPE
  5
16
330
5
100
AcDbSymbolTableRecord
100
AcDbLinetypeTableRecord
  2
CONTINUOUS
 70
     0
  3
Solid line
 72
    65
 73
     0
 40
0.0
  0
ENDTAB
  0
TABLE
  2
LAYER
  5
2
330
0
100
AcDbSymbolTable
 70
     4
  0
LAYER
  5
10
330
2
100
AcDbSymbolTableRecord
100
AcDbLayerTableRecord
  2
0
 70
     0
 62
     7
  6
CONTINUOUS
  0
LAYER
  5
6E
330
2
100
AcDbSymbolTableRecord
100
AcDbLayerTableRecord
  2
THICK
 70
     0
 62
     7
  6
CONTINUOUS
  0
LAYER
  5
6F
330
2
100
AcDbSymbolTableRecord
100
AcDbLayerTableRecord
  2
HIDDEN
 70
     0
 62
     7
  6
CONTINUOUS
  0
LAYER
  5
70
330
2
100
AcDbSymbolTableRecord
100
AcDbLayerTableRecord
  2
HASHLINES
 70
     0
 62
     7
  6
CONTINUOUS
  0
ENDTAB
  0
TABLE
  2
STYLE
  5
3
330
0
100
AcDbSymbolTable
 70
     1
  0
STYLE
  5
11
330
3
100
AcDbSymbolTableRecord
100
AcDbTextStyleTableRecord
  2
STANDARD
 70
     0
 40
0.0
 41
1.0
 50
0.0
 71
     0
 42
2.5
  3
txt
  4

  0
ENDTAB
  0
TABLE
  2
VIEW
  5
6
330
0
100
AcDbSymbolTable
 70
     0
  0
ENDTAB
  0
TABLE
  2
UCS
  5
7
330
0
100
AcDbSymbolTable
 70
     0
  0
ENDTAB
  0
TABLE
  2
APPID
  5
9
330
0
100
AcDbSymbolTable
 70
     3
  0
APPID
  5
12
330
9
100
AcDbSymbolTableRecord
100
AcDbRegAppTableRecord
  2
ACAD
 70
     0
  0
APPID
  5
71
330
9
100
AcDbSymbolTableRecord
100
AcDbRegAppTableRecord
  2
DBPROPERTIES
 70
     0
  0
APPID
  5
27B
330
9
100
AcDbSymbolTableRecord
100
AcDbRegAppTableRecord
  2
ACAD_MLEADERVER
 70
     0
  0
ENDTAB
  0
TABLE
  2
DIMSTYLE
  5
A
330
0
100
AcDbSymbolTable
 70
     1
  0
DIMSTYLE
105
27
330
A
100
AcDbSymbolTableRecord
100
AcDbDimStyleTableRecord
  2
ISO-25
 70
     0
  3

  4

  5

  6

  7

 40
1.0
 41
2.5
 42
0.625
 43
3.75
 44
1.25
 45
0.0
 46
0.0
 47
0.0
 48
0.0
140
2.5
141
2.5
142
0.0
143
0.03937007874016
144
1.0
145
0.0
146
1.0
147
0.625
 71
     0
 72
     0
 73
     0
 74
     0
 75
     0
 76
     0
 77
     1
 78
     8
170
     0
171
     3
172
     1
173
     0
174
     0
175
     0
176
     0
177
     0
178
     0
270
     2
271
     2
272
     2
273
     2
274
     3
340
11
275
     0
280
     0
281
     0
282
     0
283
     0
284
     8
285
     0
286
     0
287
     3
288
     0
  0
ENDTAB
  0
TABLE
  2
BLOCK_RECORD
  5
1
330
0
100
AcDbSymbolTable
 70
     0
  0
BLOCK_RECORD
  5
1F
330
1
100
AcDbSymbolTableRecord
100
AcDbBlockTableRecord
  2
*MODEL_SPACE
  0
BLOCK_RECORD
  5
1B
330
1
100
AcDbSymbolTableRecord
100
AcDbBlockTableRecord
  2
*PAPER_SPACE
  0
ENDTAB
  0
ENDSEC
  0
SECTION
  2
BLOCKS
  0
BLOCK
  5
20
330
1F
100
AcDbEntity
  8
0
100
AcDbBlockBegin
  2
*MODEL_SPACE
 70
     0
 10
0.0
 20
0.0
 30
0.0
  3
*MODEL_SPACE
  1

  0
ENDBLK
  5
21
330
1F
100
AcDbEntity
  8
0
100
AcDbBlockEnd
  0
BLOCK
  5
1C
330
1B
100
AcDbEntity
 67
     1
  8
0
100
AcDbBlockBegin
  2
*PAPER_SPACE
 70
     0
 10
0.0
 20
0.0
 30
0.0
  3
*PAPER_SPACE
  1

  0
ENDBLK
  5
1D
330
1B
100
AcDbEntity
 67
     1
  8
0
100
AcDbBlockEnd
  0
ENDSEC
  0
SECTION
  2
ENTITIES
  0
LINE
  5
72
330
1F
100
AcDbEntity
  8
HIDDEN
100
AcDbLine
 10
902.2499999999999
 20
647.5
 30
0.0
 11
902.25
 21
647.5
 31
0.0
1001
DBPROPERTIES
1002
{
1000
PbHidd
1002
}
  0
LINE
  5
73
330
1F
100
AcDbEntity
  8
THICK
100
AcDbLine
 10
-902.2499999999999
 20
647.5
 30
0.0
 11
902.2500000000001
 21
647.5
 31
0.0
1001
DBPROPERTIES
1002
{
1000
PbThick
1002
}
  0
LINE
  5
74
330
1F
100
AcDbEntity
  8
HIDDEN
100
AcDbLine
 10
-902.25
 20
647.5
 30
0.0
 11
-902.25
 21
647.5
 31
0.0
1001
DBPROPERTIES
1002
{
1000
PbHidd
1002
}
  0
LINE
  5
75
330
1F
100
AcDbEntity
  8
HIDDEN
100
AcDbLine
 10
405.0000000000001
 20
647.5
 30
0.0
 11
404.9999999999999
 21
647.5
 31
0.0
1001
DBPROPERTIES
1002
{
1000
PbHidd
1002
}
  0
LINE
  5
76
330
1F
100
AcDbEntity
  8
THICK
100
AcDbLine
 10
-856.125
 20
751.75
 30
0.0
 11
-852.125
 21
751.75
 31
0.0
1001
DBPROPERTIES
1002
{
1000
PbThick
1002
}
  0
ARC
  5
77
330
1F
100
AcDbEntity
  8
THICK
100
AcDbCircle
 10
-856.125
 20
750.75
 30
0.0
 40
1.0
100
AcDbArc
 50
89.99998127603165
 51
180.0000198478428
1001
DBPROPERTIES
1002
{
1000
PbThick
1002
}
  0
LINE
  5
78
330
1F
100
AcDbEntity
  8
THICK
100
AcDbLine
 10
-857.125
 20
750.75
 30
0.0
 11
-852.125
 21
750.75
 31
0.0
1001
DBPROPERTIES
1002
{
1000
PbThick
1002
}
  0
LINE
  5
79
330
1F
100
AcDbEntity
  8
THICK
100
AcDbLine
 10
-852.125
 20
750.75
 30
0.0
 11
-847.125
 21
750.75
 31
0.0
1001
DBPROPERTIES
1002
{
1000
PbThick
1002
}
  0
ARC
  5
7A
330
1F
100
AcDbEntity
  8
THICK
100
AcDbCircle
 10
-848.125
 20
750.75
 30
0.0
 40
1.0
100
AcDbArc
 50
0.0
 51
89.99998127603165
1001
DBPROPERTIES
1002
{
1000
PbThick
1002
}
  0
LINE
  5
7B
330
1F
100
AcDbEntity
  8
THICK
100
AcDbLine
 10
-852.125
 20
751.75
 30
0.0
 11
-848.125
 21
751.75
 31
0.0
1001
DBPROPERTIES
1002
{
1000
PbThick
1002
}
  0
LINE
  5
7C
330
1F
100
AcDbEntity
  8
HIDDEN
100
AcDbLine
 10
-852.125
 20
750.75
 30
0.0
 11
-857.125
 21
750.75
 31
0.0
1001
DBPROPERTIES
1002
{
1000
PbHidd
1002
}
  0
LINE
  5
7D
330
1F
100
AcDbEntity
  8
THICK
100
AcDbLine
 10
346.8750000000001
 20
751.75
 30
0.0
 11
350.8750000000001
 21
751.75
 31
0.0
1001
DBPROPERTIES
1002
{
1000
PbThick
1002
}
  0
ARC
  5
7E
330
1F
100
AcDbEntity
  8
THICK
100
AcDbCircle
 10
346.8750000000001
 20
750.75
 30
0.0
 40
1.0
100
AcDbArc
 50
89.99998127603165
 51
180.0000198478428
1001
DBPROPERTIES
1002
{
1000
PbThick
1002
}
  0
LINE
  5
7F
330
1F
100
AcDbEntity
  8
THICK
100
AcDbLine
 10
345.8750000000001
 20
750.75
 30
0.0
 11
350.8750000000001
 21
750.75
 31
0.0
1001
DBPROPERTIES
1002
{
1000
PbThick
1002
}
  0
LINE
  5
80
330
1F
100
AcDbEntity
  8
THICK
100
AcDbLine
 10
350.8750000000001
 20
750.75
 30
0.0
 11
355.8750000000001
 21
750.75
 31
0.0
1001
DBPROPERTIES
1002
{
1000
PbThick
1002
}
  0
ARC
  5
81
330
1F
100
AcDbEntity
  8
THICK
100
AcDbCircle
 10
354.8750000000001
 20
750.75
 30
0.0
 40
1.0
100
AcDbArc
 50
0.0
 51
89.99998127603165
1001
DBPROPERTIES
1002
{
1000
PbThick
1002
}
  0
LINE
  5
82
330
1F
100
AcDbEntity
  8
THICK
100
AcDbLine
 10
350.8750000000001
 20
751.75
 30
0.0
 11
354.8750000000001
 21
751.75
 31
0.0
1001
DBPROPERTIES
1002
{
1000
PbThick
1002
}
  0
LINE
  5
83
330
1F
100
AcDbEntity
  8
HIDDEN
100
AcDbLine
 10
350.8750000000001
 20
750.75
 30
0.0
 11
345.8750000000001
 21
750.75
 31
0.0
1001
DBPROPERTIES
1002
{
1000
PbHidd
1002
}
  0
LINE
  5
84
330
1F
100
AcDbEntity
  8
HIDDEN
100
AcDbLine
 10
-852.125
 20
750.75
 30
0.0
 11
-857.125
 21
750.75
 31
0.0
1001
DBPROPERTIES
1002
{
1000
PbHidd
1002
}
  0
LINE
  5
85
330
1F
100
AcDbEntity
  8
HIDDEN
100
AcDbLine
 10
-847.125
 20
750.75
 30
0.0
 11
-852.125
 21
750.75
 31
0.0
1001
DBPROPERTIES
1002
{
1000
PbHidd
1002
}
  0
LINE
  5
86
330
1F
100
AcDbEntity
  8
HIDDEN
100
AcDbLine
 10
-852.125
 20
750.75
 30
0.0
 11
-857.125
 21
750.75
 31
0.0
1001
DBPROPERTIES
1002
{
1000
PbHidd
1002
}
  0
LINE
  5
87
330
1F
100
AcDbEntity
  8
HIDDEN
100
AcDbLine
 10
345.875
 20
750.75
 30
0.0
 11
350.875
 21
750.75
 31
0.0
1001
DBPROPERTIES
1002
{
1000
PbHidd
1002
}
  0
LINE
  5
88
330
1F
100
AcDbEntity
  8
HIDDEN
100
AcDbLine
 10
350.875
 20
750.75
 30
0.0
 11
355.875
 21
750.75
 31
0.0
1001
DBPROPERTIES
1002
{
1000
PbHidd
1002
}
  0
LINE
  5
89
330
1F
100
AcDbEntity
  8
HIDDEN
100
AcDbLine
 10
350.875
 20
750.75
 30
0.0
 11
345.875
 21
750.75
 31
0.0
1001
DBPROPERTIES
1002
{
1000
PbHidd
1002
}
  0
LINE
  5
8A
330
1F
100
AcDbEntity
  8
HIDDEN
100
AcDbLine
 10
-852.125
 20
750.75
 30
0.0
 11
-857.125
 21
750.75
 31
0.0
1001
DBPROPERTIES
1002
{
1000
PbHidd
1002
}
  0
LINE
  5
8B
330
1F
100
AcDbEntity
  8
HIDDEN
100
AcDbLine
 10
-847.125
 20
750.75
 30
0.0
 11
-852.125
 21
750.75
 31
0.0
1001
DBPROPERTIES
1002
{
1000
PbHidd
1002
}
  0
LINE
  5
8C
330
1F
100
AcDbEntity
  8
HIDDEN
100
AcDbLine
 10
-852.125
 20
750.75
 30
0.0
 11
-857.125
 21
750.75
 31
0.0
1001
DBPROPERTIES
1002
{
1000
PbHidd
1002
}
  0
LINE
  5
8D
330
1F
100
AcDbEntity
  8
HIDDEN
100
AcDbLine
 10
345.875
 20
750.75
 30
0.0
 11
350.875
 21
750.75
 31
0.0
1001
DBPROPERTIES
1002
{
1000
PbHidd
1002
}
  0
LINE
  5
8E
330
1F
100
AcDbEntity
  8
HIDDEN
100
AcDbLine
 10
350.875
 20
750.75
 30
0.0
 11
355.875
 21
750.75
 31
0.0
1001
DBPROPERTIES
1002
{
1000
PbHidd
1002
}
  0
LINE
  5
8F
330
1F
100
AcDbEntity
  8
HIDDEN
100
AcDbLine
 10
350.875
 20
750.75
 30
0.0
 11
345.875
 21
750.75
 31
0.0
1001
DBPROPERTIES
1002
{
1000
PbHidd
1002
}
  0
LINE
  5
90
330
1F
100
AcDbEntity
  8
HIDDEN
100
AcDbLine
 10
-857.125
 20
750.75
 30
0.0
 11
-852.125
 21
750.75
 31
0.0
1001
DBPROPERTIES
1002
{
1000
PbHidd
1002
}
  0
LINE
  5
91
330
1F
100
AcDbEntity
  8
HIDDEN
100
AcDbLine
 10
-852.125
 20
750.75
 30
0.0
 11
-847.125
 21
750.75
 31
0.0
1001
DBPROPERTIES
1002
{
1000
PbHidd
1002
}
  0
LINE
  5
92
330
1F
100
AcDbEntity
  8
HIDDEN
100
AcDbLine
 10
-852.125
 20
750.75
 30
0.0
 11
-857.125
 21
750.75
 31
0.0
1001
DBPROPERTIES
1002
{
1000
PbHidd
1002
}
  0
LINE
  5
93
330
1F
100
AcDbEntity
  8
HIDDEN
100
AcDbLine
 10
345.875
 20
750.75
 30
0.0
 11
350.875
 21
750.75
 31
0.0
1001
DBPROPERTIES
1002
{
1000
PbHidd
1002
}
  0
LINE
  5
94
330
1F
100
AcDbEntity
  8
HIDDEN
100
AcDbLine
 10
350.875
 20
750.75
 30
0.0
 11
355.875
 21
750.75
 31
0.0
1001
DBPROPERTIES
1002
{
1000
PbHidd
1002
}
  0
LINE
  5
95
330
1F
100
AcDbEntity
  8
HIDDEN
100
AcDbLine
 10
350.875
 20
750.75
 30
0.0
 11
345.875
 21
750.75
 31
0.0
1001
DBPROPERTIES
1002
{
1000
PbHidd
1002
}
  0
LINE
  5
96
330
1F
100
AcDbEntity
  8
HIDDEN
100
AcDbLine
 10
-857.125
 20
750.75
 30
0.0
 11
-852.125
 21
750.75
 31
0.0
1001
DBPROPERTIES
1002
{
1000
PbHidd
1002
}
  0
LINE
  5
97
330
1F
100
AcDbEntity
  8
HIDDEN
100
AcDbLine
 10
-852.125
 20
750.75
 30
0.0
 11
-847.125
 21
750.75
 31
0.0
1001
DBPROPERTIES
1002
{
1000
PbHidd
1002
}
  0
LINE
  5
98
330
1F
100
AcDbEntity
  8
HIDDEN
100
AcDbLine
 10
-852.125
 20
750.75
 30
0.0
 11
-857.125
 21
750.75
 31
0.0
1001
DBPROPERTIES
1002
{
1000
PbHidd
1002
}
  0
LINE
  5
99
330
1F
100
AcDbEntity
  8
HIDDEN
100
AcDbLine
 10
345.8749999999999
 20
750.75
 30
0.0
 11
350.8749999999999
 21
750.75
 31
0.0
1001
DBPROPERTIES
1002
{
1000
PbHidd
1002
}
  0
LINE
  5
9A
330
1F
100
AcDbEntity
  8
HIDDEN
100
AcDbLine
 10
350.8749999999999
 20
750.75
 30
0.0
 11
355.8749999999999
 21
750.75
 31
0.0
1001
DBPROPERTIES
1002
{
1000
PbHidd
1002
}
  0
LINE
  5
9B
330
1F
100
AcDbEntity
  8
HIDDEN
100
AcDbLine
 10
350.8749999999999
 20
750.75
 30
0.0
 11
345.8749999999999
 21
750.75
 31
0.0
1001
DBPROPERTIES
1002
{
1000
PbHidd
1002
}
  0
LINE
  5
9C
330
1F
100
AcDbEntity
  8
THICK
100
AcDbLine
 10
-806.0
 20
751.75
 30
0.0
 11
-802.0
 21
751.75
 31
0.0
1001
DBPROPERTIES
1002
{
1000
PbThick
1002
}
  0
ARC
  5
9D
330
1F
100
AcDbEntity
  8
THICK
100
AcDbCircle
 10
-806.0
 20
750.75
 30
0.0
 40
1.0
100
AcDbArc
 50
89.99998127603165
 51
180.0000198478428
1001
DBPROPERTIES
1002
{
1000
PbThick
1002
}
  0
LINE
  5
9E
330
1F
100
AcDbEntity
  8
THICK
100
AcDbLine
 10
-807.0
 20
750.75
 30
0.0
 11
-802.0
 21
750.75
 31
0.0
1001
DBPROPERTIES
1002
{
1000
PbThick
1002
}
  0
LINE
  5
9F
330
1F
100
AcDbEntity
  8
THICK
100
AcDbLine
 10
-802.0
 20
750.75
 30
0.0
 11
-797.0
 21
750.75
 31
0.0
1001
DBPROPERTIES
1002
{
1000
PbThick
1002
}
  0
ARC
  5
A0
330
1F
100
AcDbEntity
  8
THICK
100
AcDbCircle
 10
-798.0
 20
750.75
 30
0.0
 40
1.0
100
AcDbArc
 50
0.0
 51
89.99998127603165
1001
DBPROPERTIES
1002
{
1000
PbThick
1002
}
  0
LINE
  5
A1
330
1F
100
AcDbEntity
  8
THICK
100
AcDbLine
 10
-802.0
 20
751.75
 30
0.0
 11
-798.0
 21
751.75
 31
0.0
1001
DBPROPERTIES
1002
{
1000
PbThick
1002
}
  0
LINE
  5
A2
330
1F
100
AcDbEntity
  8
HIDDEN
100
AcDbLine
 10
-802.0
 20
750.75
 30
0.0
 11
-807.0
 21
750.75
 31
0.0
1001
DBPROPERTIES
1002
{
1000
PbHidd
1002
}
  0
LINE
  5
A3
330
1F
100
AcDbEntity
  8
THICK
100
AcDbLine
 10
-530.3125
 20
751.75
 30
0.0
 11
-526.3125
 21
751.75
 31
0.0
1001
DBPROPERTIES
1002
{
1000
PbThick
1002
}
  0
ARC
  5
A4
330
1F
100
AcDbEntity
  8
THICK
100
AcDbCircle
 10
-530.3125
 20
750.75
 30
0.0
 40
1.0
100
AcDbArc
 50
89.99998127603165
 51
180.0000198478428
1001
DBPROPERTIES
1002
{
1000
PbThick
1002
}
  0
LINE
  5
A5
330
1F
100
AcDbEntity
  8
THICK
100
AcDbLine
 10
-531.3125
 20
750.75
 30
0.0
 11
-526.3125
 21
750.75
 31
0.0
1001
DBPROPERTIES
1002
{
1000
PbThick
1002
}
  0
LINE
  5
A6
330
1F
100
AcDbEntity
  8
THICK
100
AcDbLine
 10
-526.3125
 20
750.75
 30
0.0
 11
-521.3125
 21
750.75
 31
0.0
1001
DBPROPERTIES
1002
{
1000
PbThick
1002
}
  0
ARC
  5
A7
330
1F
100
AcDbEntity
  8
THICK
100
AcDbCircle
 10
-522.3125
 20
750.75
 30
0.0
 40
1.0
100
AcDbArc
 50
0.0
 51
89.99998127603165
1001
DBPROPERTIES
1002
{
1000
PbThick
1002
}
  0
LINE
  5
A8
330
1F
100
AcDbEntity
  8
THICK
100
AcDbLine
 10
-526.3125
 20
751.75
 30
0.0
 11
-522.3125
 21
751.75
 31
0.0
1001
DBPROPERTIES
1002
{
1000
PbThick
1002
}
  0
LINE
  5
A9
330
1F
100
AcDbEntity
  8
HIDDEN
100
AcDbLine
 10
-526.3125
 20
750.75
 30
0.0
 11
-531.3125
 21
750.75
 31
0.0
1001
DBPROPERTIES
1002
{
1000
PbHidd
1002
}
  0
LINE
  5
AA
330
1F
100
AcDbEntity
  8
THICK
100
AcDbLine
 10
-254.6249999999999
 20
751.75
 30
0.0
 11
-250.6249999999999
 21
751.75
 31
0.0
1001
DBPROPERTIES
1002
{
1000
PbThick
1002
}
  0
ARC
  5
AB
330
1F
100
AcDbEntity
  8
THICK
100
AcDbCircle
 10
-254.6249999999999
 20
750.75
 30
0.0
 40
1.0
100
AcDbArc
 50
89.99998127603165
 51
180.0000198478428
1001
DBPROPERTIES
1002
{
1000
PbThick
1002
}
  0
LINE
  5
AC
330
1F
100
AcDbEntity
  8
THICK
100
AcDbLine
 10
-255.6249999999999
 20
750.75
 30
0.0
 11
-250.6249999999999
 21
750.75
 31
0.0
1001
DBPROPERTIES
1002
{
1000
PbThick
1002
}
  0
LINE
  5
AD
330
1F
100
AcDbEntity
  8
THICK
100
AcDbLine
 10
-250.6249999999999
 20
750.75
 30
0.0
 11
-245.6249999999999
 21
750.75
 31
0.0
1001
DBPROPERTIES
1002
{
1000
PbThick
1002
}
  0
ARC
  5
AE
330
1F
100
AcDbEntity
  8
THICK
100
AcDbCircle
 10
-246.6249999999999
 20
750.75
 30
0.0
 40
1.0
100
AcDbArc
 50
0.0
 51
89.99998127603165
1001
DBPROPERTIES
1002
{
1000
PbThick
1002
}
  0
LINE
  5
AF
330
1F
100
AcDbEntity
  8
THICK
100
AcDbLine
 10
-250.6249999999999
 20
751.75
 30
0.0
 11
-246.6249999999999
 21
751.75
 31
0.0
1001
DBPROPERTIES
1002
{
1000
PbThick
1002
}
  0
LINE
  5
B0
330
1F
100
AcDbEntity
  8
HIDDEN
100
AcDbLine
 10
-250.6249999999999
 20
750.75
 30
0.0
 11
-255.6249999999999
 21
750.75
 31
0.0
1001
DBPROPERTIES
1002
{
1000
PbHidd
1002
}
  0
LINE
  5
B1
330
1F
100
AcDbEntity
  8
THICK
100
AcDbLine
 10
21.06250000000005
 20
751.75
 30
0.0
 11
25.06250000000005
 21
751.75
 31
0.0
1001
DBPROPERTIES
1002
{
1000
PbThick
1002
}
  0
ARC
  5
B2
330
1F
100
AcDbEntity
  8
THICK
100
AcDbCircle
 10
21.06250000000005
 20
750.75
 30
0.0
 40
1.0
100
AcDbArc
 50
89.99998127603165
 51
180.0000198478428
1001
DBPROPERTIES
1002
{
1000
PbThick
1002
}
  0
LINE
  5
B3
330
1F
100
AcDbEntity
  8
THICK
100
AcDbLine
 10
20.06250000000005
 20
750.75
 30
0.0
 11
25.06250000000005
 21
750.75
 31
0.0
1001
DBPROPERTIES
1002
{
1000
PbThick
1002
}
  0
LINE
  5
B4
330
1F
100
AcDbEntity
  8
THICK
100
AcDbLine
 10
25.06250000000005
 20
750.75
 30
0.0
 11
30.06250000000005
 21
750.75
 31
0.0
1001
DBPROPERTIES
1002
{
1000
PbThick
1002
}
  0
ARC
  5
B5
330
1F
100
AcDbEntity
  8
THICK
100
AcDbCircle
 10
29.06250000000005
 20
750.75
 30
0.0
 40
1.0
100
AcDbArc
 50
0.0
 51
89.99998127603165
1001
DBPROPERTIES
1002
{
1000
PbThick
1002
}
  0
LINE
  5
B6
330
1F
100
AcDbEntity
  8
THICK
100
AcDbLine
 10
25.06250000000005
 20
751.75
 30
0.0
 11
29.06250000000005
 21
751.75
 31
0.0
1001
DBPROPERTIES
1002
{
1000
PbThick
1002
}
  0
LINE
  5
B7
330
1F
100
AcDbEntity
  8
HIDDEN
100
AcDbLine
 10
25.06250000000005
 20
750.75
 30
0.0
 11
20.06250000000005
 21
750.75
 31
0.0
1001
DBPROPERTIES
1002
{
1000
PbHidd
1002
}
  0
LINE
  5
B8
330
1F
100
AcDbEntity
  8
THICK
100
AcDbLine
 10
296.7500000000001
 20
751.75
 30
0.0
 11
300.7500000000001
 21
751.75
 31
0.0
1001
DBPROPERTIES
1002
{
1000
PbThick
1002
}
  0
ARC
  5
B9
330
1F
100
AcDbEntity
  8
THICK
100
AcDbCircle
 10
296.7500000000001
 20
750.75
 30
0.0
 40
1.0
100
AcDbArc
 50
89.99998127603165
 51
180.0000198478428
1001
DBPROPERTIES
1002
{
1000
PbThick
1002
}
  0
LINE
  5
BA
330
1F
100
AcDbEntity
  8
THICK
100
AcDbLine
 10
295.7500000000001
 20
750.75
 30
0.0
 11
300.7500000000001
 21
750.75
 31
0.0
1001
DBPROPERTIES
1002
{
1000
PbThick
1002
}
  0
LINE
  5
BB
330
1F
100
AcDbEntity
  8
THICK
100
AcDbLine
 10
300.7500000000001
 20
750.75
 30
0.0
 11
305.7500000000001
 21
750.75
 31
0.0
1001
DBPROPERTIES
1002
{
1000
PbThick
1002
}
  0
ARC
  5
BC
330
1F
100
AcDbEntity
  8
THICK
100
AcDbCircle
 10
304.7500000000001
 20
750.75
 30
0.0
 40
1.0
100
AcDbArc
 50
0.0
 51
89.99998127603165
1001
DBPROPERTIES
1002
{
1000
PbThick
1002
}
  0
LINE
  5
BD
330
1F
100
AcDbEntity
  8
THICK
100
AcDbLine
 10
300.7500000000001
 20
751.75
 30
0.0
 11
304.7500000000001
 21
751.75
 31
0.0
1001
DBPROPERTIES
1002
{
1000
PbThick
1002
}
  0
LINE
  5
BE
330
1F
100
AcDbEntity
  8
HIDDEN
100
AcDbLine
 10
300.7500000000001
 20
750.75
 30
0.0
 11
295.7500000000001
 21
750.75
 31
0.0
1001
DBPROPERTIES
1002
{
1000
PbHidd
1002
}
  0
LINE
  5
BF
330
1F
100
AcDbEntity
  8
HIDDEN
100
AcDbLine
 10
-807.0
 20
750.75
 30
0.0
 11
-802.0
 21
750.75
 31
0.0
1001
DBPROPERTIES
1002
{
1000
PbHidd
1002
}
  0
LINE
  5
C0
330
1F
100
AcDbEntity
  8
HIDDEN
100
AcDbLine
 10
-802.0
 20
750.75
 30
0.0
 11
-797.0
 21
750.75
 31
0.0
1001
DBPROPERTIES
1002
{
1000
PbHidd
1002
}
  0
LINE
  5
C1
330
1F
100
AcDbEntity
  8
HIDDEN
100
AcDbLine
 10
-802.0
 20
750.75
 30
0.0
 11
-807.0
 21
750.75
 31
0.0
1001
DBPROPERTIES
1002
{
1000
PbHidd
1002
}
  0
LINE
  5
C2
330
1F
100
AcDbEntity
  8
HIDDEN
100
AcDbLine
 10
-531.3125
 20
750.75
 30
0.0
 11
-526.3125
 21
750.75
 31
0.0
1001
DBPROPERTIES
1002
{
1000
PbHidd
1002
}
  0
LINE
  5
C3
330
1F
100
AcDbEntity
  8
HIDDEN
100
AcDbLine
 10
-526.3125
 20
750.75
 30
0.0
 11
-521.3125
 21
750.75
 31
0.0
1001
DBPROPERTIES
1002
{
1000
PbHidd
1002
}
  0
LINE
  5
C4
330
1F
100
AcDbEntity
  8
HIDDEN
100
AcDbLine
 10
-526.3125
 20
750.75
 30
0.0
 11
-531.3125
 21
750.75
 31
0.0
1001
DBPROPERTIES
1002
{
1000
PbHidd
1002
}
  0
LINE
  5
C5
330
1F
100
AcDbEntity
  8
HIDDEN
100
AcDbLine
 10
-255.6250000000001
 20
750.75
 30
0.0
 11
-250.6250000000001
 21
750.75
 31
0.0
1001
DBPROPERTIES
1002
{
1000
PbHidd
1002
}
  0
LINE
  5
C6
330
1F
100
AcDbEntity
  8
HIDDEN
100
AcDbLine
 10
-250.6250000000001
 20
750.75
 30
0.0
 11
-245.6250000000001
 21
750.75
 31
0.0
1001
DBPROPERTIES
1002
{
1000
PbHidd
1002
}
  0
LINE
  5
C7
330
1F
100
AcDbEntity
  8
HIDDEN
100
AcDbLine
 10
-250.6250000000001
 20
750.75
 30
0.0
 11
-255.6250000000001
 21
750.75
 31
0.0
1001
DBPROPERTIES
1002
{
1000
PbHidd
1002
}
  0
LINE
  5
C8
330
1F
100
AcDbEntity
  8
HIDDEN
100
AcDbLine
 10
20.06249999999995
 20
750.75
 30
0.0
 11
25.06249999999995
 21
750.75
 31
0.0
1001
DBPROPERTIES
1002
{
1000
PbHidd
1002
}
  0
LINE
  5
C9
330
1F
100
AcDbEntity
  8
HIDDEN
100
AcDbLine
 10
25.06249999999995
 20
750.75
 30
0.0
 11
30.06249999999995
 21
750.75
 31
0.0
1001
DBPROPERTIES
1002
{
1000
PbHidd
1002
}
  0
LINE
  5
CA
330
1F
100
AcDbEntity
  8
HIDDEN
100
AcDbLine
 10
25.06249999999995
 20
750.75
 30
0.0
 11
20.06249999999995
 21
750.75
 31
0.0
1001
DBPROPERTIES
1002
{
1000
PbHidd
1002
}
  0
LINE
  5
CB
330
1F
100
AcDbEntity
  8
HIDDEN
100
AcDbLine
 10
295.7499999999999
 20
750.75
 30
0.0
 11
300.7499999999999
 21
750.75
 31
0.0
1001
DBPROPERTIES
1002
{
1000
PbHidd
1002
}
  0
LINE
  5
CC
330
1F
100
AcDbEntity
  8
HIDDEN
100
AcDbLine
 10
300.7499999999999
 20
750.75
 30
0.0
 11
305.7499999999999
 21
750.75
 31
0.0
1001
DBPROPERTIES
1002
{
1000
PbHidd
1002
}
  0
LINE
  5
CD
330
1F
100
AcDbEntity
  8
HIDDEN
100
AcDbLine
 10
300.7499999999999
 20
750.75
 30
0.0
 11
295.7499999999999
 21
750.75
 31
0.0
1001
DBPROPERTIES
1002
{
1000
PbHidd
1002
}
  0
ARC
  5
CE
330
1F
100
AcDbEntity
  8
HIDDEN
100
AcDbCircle
 10
651.625
 20
-373.875
 30
0.0
 40
180.45
100
AcDbArc
 50
89.99998127603165
 51
179.9999801521572
1001
DBPROPERTIES
1002
{
1000
PbHidd
1002
}
  0
ARC
  5
CF
330
1F
100
AcDbEntity
  8
HIDDEN
100
AcDbCircle
 10
651.625
 20
-373.875
 30
0.0
 40
180.45
100
AcDbArc
 50
0.0
 51
89.99998127603165
1001
DBPROPERTIES
1002
{
1000
PbHidd
1002
}
  0
ARC
  5
D0
330
1F
100
AcDbEntity
  8
THICK
100
AcDbCircle
 10
651.625
 20
-373.875
 30
0.0
 40
180.45
100
AcDbArc
 50
0.0
 51
89.99998127603165
1001
DBPROPERTIES
1002
{
1000
PbThick
1002
}
  0
ARC
  5
D1
330
1F
100
AcDbEntity
  8
THICK
100
AcDbCircle
 10
651.625
 20
-373.875
 30
0.0
 40
200.5
100
AcDbArc
 50
0.0
 51
137.0788346821207
1001
DBPROPERTIES
1002
{
1000
PbThick
1002
}
  0
ARC
  5
D2
330
1F
100
AcDbEntity
  8
HIDDEN
100
AcDbCircle
 10
651.625
 20
-373.875
 30
0.0
 40
200.5
100
AcDbArc
 50
137.0788346821207
 51
138.8542590018925
1001
DBPROPERTIES
1002
{
1000
PbHidd
1002
}
  0
ARC
  5
D3
330
1F
100
AcDbEntity
  8
THICK
100
AcDbCircle
 10
651.625
 20
-373.875
 30
0.0
 40
200.5
100
AcDbArc
 50
138.8542590018925
 51
167.1457117140828
1001
DBPROPERTIES
1002
{
1000
PbThick
1002
}
  0
ARC
  5
D4
330
1F
100
AcDbEntity
  8
HIDDEN
100
AcDbCircle
 10
651.625
 20
-373.875
 30
0.0
 40
200.5
100
AcDbArc
 50
167.1457117140828
 51
168.9211360338547
1001
DBPROPERTIES
1002
{
1000
PbHidd
1002
}
  0
ARC
  5
D5
330
1F
100
AcDbEntity
  8
THICK
100
AcDbCircle
 10
651.625
 20
-373.875
 30
0.0
 40
200.5
100
AcDbArc
 50
168.9211360338547
 51
180.0000198478428
1001
DBPROPERTIES
1002
{
1000
PbThick
1002
}
  0
ARC
  5
D6
330
1F
100
AcDbEntity
  8
THICK
100
AcDbCircle
 10
651.625
 20
-373.875
 30
0.0
 40
180.45
100
AcDbArc
 50
89.99998127603165
 51
135.2542505835265
1001
DBPROPERTIES
1002
{
1000
PbThick
1002
}
  0
ARC
  5
D7
330
1F
100
AcDbEntity
  8
HIDDEN
100
AcDbCircle
 10
651.625
 20
-373.875
 30
0.0
 40
180.45
100
AcDbArc
 50
135.2542505835265
 51
137.2438465271183
1001
DBPROPERTIES
1002
{
1000
PbHidd
1002
}
  0
ARC
  5
D8
330
1F
100
AcDbEntity
  8
THICK
100
AcDbCircle
 10
651.625
 20
-373.875
 30
0.0
 40
180.45
100
AcDbArc
 50
137.2438465271183
 51
168.756124188857
1001
DBPROPERTIES
1002
{
1000
PbThick
1002
}
  0
ARC
  5
D9
330
1F
100
AcDbEntity
  8
HIDDEN
100
AcDbCircle
 10
651.625
 20
-373.875
 30
0.0
 40
180.45
100
AcDbArc
 50
168.756124188857
 51
170.7457201324488
1001
DBPROPERTIES
1002
{
1000
PbHidd
1002
}
  0
ARC
  5
DA
330
1F
100
AcDbEntity
  8
THICK
100
AcDbCircle
 10
651.625
 20
-373.875
 30
0.0
 40
180.45
100
AcDbArc
 50
170.7457201324488
 51
180.0000198478428
1001
DBPROPERTIES
1002
{
1000
PbThick
1002
}
  0
ARC
  5
DB
330
1F
100
AcDbEntity
  8
THICK
100
AcDbCircle
 10
651.625
 20
-373.875
 30
0.0
 40
200.5
100
AcDbArc
 50
180.0000198478428
 51
221.4096453585447
1001
DBPROPERTIES
1002
{
1000
PbThick
1002
}
  0
LINE
  5
DC
330
1F
100
AcDbEntity
  8
HIDDEN
100
AcDbLine
 10
501.25
 20
-506.4932844671126
 30
0.0
 11
501.25
 21
-506.4932844671126
 31
0.0
1001
DBPROPERTIES
1002
{
1000
PbHidd
1002
}
  0
ARC
  5
DD
330
1F
100
AcDbEntity
  8
THICK
100
AcDbCircle
 10
651.625
 20
-373.875
 30
0.0
 40
200.5
100
AcDbArc
 50
318.590392089392
 51
0.0
1001
DBPROPERTIES
1002
{
1000
PbThick
1002
}
  0
LINE
  5
DE
330
1F
100
AcDbEntity
  8
HIDDEN
100
AcDbLine
 10
802.0
 20
-506.4932844671126
 30
0.0
 11
802.0
 21
-506.4932844671126
 31
0.0
1001
DBPROPERTIES
1002
{
1000
PbHidd
1002
}
  0
ARC
  5
DF
330
1F
100
AcDbEntity
  8
HIDDEN
100
AcDbCircle
 10
-105.8204820267402
 20
347.7505273736365
 30
0.0
 40
44.86499999999999
100
AcDbArc
 50
153.0000140058774
 51
157.3012081739245
1001
DBPROPERTIES
1002
{
1000
PbHidd
1002
}
  0
LINE
  5
E0
330
1F
100
AcDbEntity
  8
HIDDEN
100
AcDbLine
 10
-147.2105227575682
 20
365.0633189827442
 30
0.0
 11
-147.2105227575683
 21
365.0633189827442
 31
0.0
1001
DBPROPERTIES
1002
{
1000
PbHidd
1002
}
  0
ARC
  5
E1
330
1F
100
AcDbEntity
  8
HIDDEN
100
AcDbCircle
 10
-105.8204820267402
 20
347.7505273736365
 30
0.0
 40
44.86499999999999
100
AcDbArc
 50
328.6987999899875
 51
332.9999941580346
1001
DBPROPERTIES
1002
{
1000
PbHidd
1002
}
  0
LINE
  5
E2
330
1F
100
AcDbEntity
  8
HIDDEN
100
AcDbLine
 10
-67.48568386153445
 20
324.4414846083718
 30
0.0
 11
-67.4856838615344
 21
324.4414846083718
 31
0.0
1001
DBPROPERTIES
1002
{
1000
PbHidd
1002
}
  0
ARC
  5
E3
330
1F
100
AcDbEntity
  8
HIDDEN
100
AcDbCircle
 10
-194.8194920053056
 20
376.6680586609014
 30
0.0
 40
44.86499999999998
100
AcDbArc
 50
170.9999988019279
 51
175.3012502657545
1001
DBPROPERTIES
1002
{
1000
PbHidd
1002
}
  0
LINE
  5
E4
330
1F
100
AcDbEntity
  8
HIDDEN
100
AcDbLine
 10
-239.5337067793677
 20
380.3432759523064
 30
0.0
 11
-239.5337067793678
 21
380.3432759523064
 31
0.0
1001
DBPROPERTIES
1002
{
1000
PbHidd
1002
}
  0
ARC
  5
E5
330
1F
100
AcDbEntity
  8
HIDDEN
100
AcDbCircle
 10
-194.8194920053056
 20
376.6680586609014
 30
0.0
 40
44.86499999999998
100
AcDbArc
 50
346.6987847860379
 51
350.9999789540851
1001
DBPROPERTIES
1002
{
1000
PbHidd
1002
}
  0
LINE
  5
E6
330
1F
100
AcDbEntity
  8
HIDDEN
100
AcDbLine
 10
-151.158042072348
 20
366.3459457593761
 30
0.0
 11
-151.1580420723479
 21
366.3459457593761
 31
0.0
1001
DBPROPERTIES
1002
{
1000
PbHidd
1002
}
  0
ARC
  5
E7
330
1F
100
AcDbEntity
  8
HIDDEN
100
AcDbCircle
 10
-288.3985889923717
 20
376.6680586609014
 30
0.0
 40
44.86499999999999
100
AcDbArc
 50
189.0000011980722
 51
193.3011953661192
1001
DBPROPERTIES
1002
{
1000
PbHidd
1002
}
  0
LINE
  5
E8
330
1F
100
AcDbEntity
  8
HIDDEN
100
AcDbLine
 10
-332.0600389253294
 20
366.3459457593761
 30
0.0
 11
-332.0600389253295
 21
366.3459457593761
 31
0.0
1001
DBPROPERTIES
1002
{
1000
PbHidd
1002
}
  0
ARC
  5
E9
330
1F
100
AcDbEntity
  8
HIDDEN
100
AcDbCircle
 10
-288.3985889923717
 20
376.6680586609014
 30
0.0
 40
44.86499999999999
100
AcDbArc
 50
4.698769582088368
 51
9.000021045914972
1001
DBPROPERTIES
1002
{
1000
PbHidd
1002
}
  0
LINE
  5
EA
330
1F
100
AcDbEntity
  8
HIDDEN
100
AcDbLine
 10
-243.6843742183096
 20
380.3432759523064
 30
0.0
 11
-243.6843742183096
 21
380.3432759523064
 31
0.0
1001
DBPROPERTIES
1002
{
1000
PbHidd
1002
}
  0
ARC
  5
EB
330
1F
100
AcDbEntity
  8
HIDDEN
100
AcDbCircle
 10
-377.3975989709372
 20
347.7505273736365
 30
0.0
 40
44.86499999999999
100
AcDbArc
 50
206.9999859941226
 51
211.3012374579492
1001
DBPROPERTIES
1002
{
1000
PbHidd
1002
}
  0
LINE
  5
EC
330
1F
100
AcDbEntity
  8
HIDDEN
100
AcDbLine
 10
-415.7323971361429
 20
324.4414846083719
 30
0.0
 11
-415.732397136143
 21
324.4414846083719
 31
0.0
1001
DBPROPERTIES
1002
{
1000
PbHidd
1002
}
  0
ARC
  5
ED
330
1F
100
AcDbEntity
  8
HIDDEN
100
AcDbCircle
 10
-377.3975989709372
 20
347.7505273736365
 30
0.0
 40
44.86499999999999
100
AcDbArc
 50
22.69875437813879
 51
27.0000058419654
1001
DBPROPERTIES
1002
{
1000
PbHidd
1002
}
  0
LINE
  5
EE
330
1F
100
AcDbEntity
  8
HIDDEN
100
AcDbLine
 10
-336.0075582401092
 20
365.0633189827444
 30
0.0
 11
-336.0075582401091
 21
365.0633189827444
 31
0.0
1001
DBPROPERTIES
1002
{
1000
PbHidd
1002
}
  0
ARC
  5
EF
330
1F
100
AcDbEntity
  8
HIDDEN
100
AcDbCircle
 10
-453.104678751735
 20
292.746114241792
 30
0.0
 40
44.86499999999998
100
AcDbArc
 50
225.0000280859525
 51
229.3012222539996
1001
DBPROPERTIES
1002
{
1000
PbHidd
1002
}
  0
LINE
  5
F0
330
1F
100
AcDbEntity
  8
HIDDEN
100
AcDbLine
 10
-482.3603480105343
 20
258.7317931223026
 30
0.0
 11
-482.3603480105344
 21
258.7317931223026
 31
0.0
1001
DBPROPERTIES
1002
{
1000
PbHidd
1002
}
  0
ARC
  5
F1
330
1F
100
AcDbEntity
  8
HIDDEN
100
AcDbCircle
 10
-453.104678751735
 20
292.746114241792
 30
0.0
 40
44.86499999999998
100
AcDbArc
 50
40.69879646996873
 51
44.99999063801582
1001
DBPROPERTIES
1002
{
1000
PbHidd
1002
}
  0
LINE
  5
F2
330
1F
100
AcDbEntity
  8
HIDDEN
100
AcDbLine
 10
-419.0903576322456
 20
322.0017835005913
 30
0.0
 11
-419.0903576322455
 21
322.0017835005913
 31
0.0
1001
DBPROPERTIES
1002
{
1000
PbHidd
1002
}
  0
ARC
  5
F3
330
1F
100
AcDbEntity
  8
HIDDEN
100
AcDbCircle
 10
-508.1090918835794
 20
217.039034460994
 30
0.0
 40
44.86499999999999
100
AcDbArc
 50
243.0000128820029
 51
247.30120705005
1001
DBPROPERTIES
1002
{
1000
PbHidd
1002
}
  0
LINE
  5
F4
330
1F
100
AcDbEntity
  8
HIDDEN
100
AcDbLine
 10
-525.4218834926874
 20
175.648993730166
 30
0.0
 11
-525.4218834926874
 21
175.648993730166
 31
0.0
1001
DBPROPERTIES
1002
{
1000
PbHidd
1002
}
  0
ARC
  5
F5
330
1F
100
AcDbEntity
  8
HIDDEN
100
AcDbCircle
 10
-508.1090918835794
 20
217.039034460994
 30
0.0
 40
44.86499999999999
100
AcDbArc
 50
58.69878126601917
 51
62.99997543406626
1001
DBPROPERTIES
1002
{
1000
PbHidd
1002
}
  0
LINE
  5
F6
330
1F
100
AcDbEntity
  8
HIDDEN
100
AcDbLine
 10
-484.800049118315
 20
255.3738326261998
 30
0.0
 11
-484.8000491183149
 21
255.3738326261998
 31
0.0
1001
DBPROPERTIES
1002
{
1000
PbHidd
1002
}
  0
ARC
  5
F7
330
1F
100
AcDbEntity
  8
HIDDEN
100
AcDbCircle
 10
-537.0266231708442
 20
128.0400244824286
 30
0.0
 40
44.86499999999999
100
AcDbArc
 50
260.9999976780534
 51
265.30124914188
1001
DBPROPERTIES
1002
{
1000
PbHidd
1002
}
  0
LINE
  5
F8
330
1F
100
AcDbEntity
  8
HIDDEN
100
AcDbLine
 10
-540.7018404622495
 20
83.32580970836648
 30
0.0
 11
-540.7018404622495
 21
83.32580970836648
 31
0.0
1001
DBPROPERTIES
1002
{
1000
PbHidd
1002
}
  0
ARC
  5
F9
330
1F
100
AcDbEntity
  8
HIDDEN
100
AcDbCircle
 10
-537.0266231708442
 20
128.0400244824286
 30
0.0
 40
44.86499999999999
100
AcDbArc
 50
76.6987660620696
 51
81.0000175258962
1001
DBPROPERTIES
1002
{
1000
PbHidd
1002
}
  0
LINE
  5
FA
330
1F
100
AcDbEntity
  8
HIDDEN
100
AcDbLine
 10
-526.7045102693191
 20
171.7014744153862
 30
0.0
 11
-526.7045102693191
 21
171.7014744153862
 31
0.0
1001
DBPROPERTIES
1002
{
1000
PbHidd
1002
}
  0
ARC
  5
FB
330
1F
100
AcDbEntity
  8
HIDDEN
100
AcDbCircle
 10
-537.0266231708445
 20
34.46092749536268
 30
0.0
 40
44.86499999999998
100
AcDbArc
 50
278.9999824741038
 51
283.3012339379304
1001
DBPROPERTIES
1002
{
1000
PbHidd
1002
}
  0
LINE
  5
FC
330
1F
100
AcDbEntity
  8
HIDDEN
100
AcDbLine
 10
-526.7045102693191
 20
-9.200522437594941
 30
0.0
 11
-526.7045102693191
 21
-9.200522437594941
 31
0.0
1001
DBPROPERTIES
1002
{
1000
PbHidd
1002
}
  0
ARC
  5
FD
330
1F
100
AcDbEntity
  8
HIDDEN
100
AcDbCircle
 10
-537.0266231708445
 20
34.46092749536268
 30
0.0
 40
44.86499999999998
100
AcDbArc
 50
94.69875085812002
 51
99.00000232194662
1001
DBPROPERTIES
1002
{
1000
PbHidd
1002
}
  0
LINE
  5
FE
330
1F
100
AcDbEntity
  8
HIDDEN
100
AcDbLine
 10
-540.7018404622495
 20
79.17514226942484
 30
0.0
 11
-540.7018404622495
 21
79.17514226942484
 31
0.0
1001
DBPROPERTIES
1002
{
1000
PbHidd
1002
}
  0
ARC
  5
FF
330
1F
100
AcDbEntity
  8
HIDDEN
100
AcDbCircle
 10
-508.1090918835794
 20
-54.53808248320269
 30
0.0
 40
44.86499999999999
100
AcDbArc
 50
297.0000245659338
 51
301.3012187339808
1001
DBPROPERTIES
1002
{
1000
PbHidd
1002
}
  0
LINE
  5
100
330
1F
100
AcDbEntity
  8
HIDDEN
100
AcDbLine
 10
-484.8000491183149
 20
-92.87288064840845
 30
0.0
 11
-484.800049118315
 21
-92.87288064840845
 31
0.0
1001
DBPROPERTIES
1002
{
1000
PbHidd
1002
}
  0
ARC
  5
101
330
1F
100
AcDbEntity
  8
HIDDEN
100
AcDbCircle
 10
-508.1090918835794
 20
-54.53808248320269
 30
0.0
 40
44.86499999999999
100
AcDbArc
 50
112.69879294995
 51
116.9999871179971
1001
DBPROPERTIES
1002
{
1000
PbHidd
1002
}
  0
LINE
  5
102
330
1F
100
AcDbEntity
  8
HIDDEN
100
AcDbLine
 10
-525.4218834926874
 20
-13.1480417523747
 30
0.0
 11
-525.4218834926874
 21
-13.1480417523747
 31
0.0
1001
DBPROPERTIES
1002
{
1000
PbHidd
1002
}
  0
ARC
  5
103
330
1F
100
AcDbEntity
  8
HIDDEN
100
AcDbCircle
 10
-453.104678751735
 20
-130.2451622640008
 30
0.0
 40
44.86499999999998
100
AcDbArc
 50
315.0000093619842
 51
319.3012035300313
1001
DBPROPERTIES
1002
{
1000
PbHidd
1002
}
  0
LINE
  5
104
330
1F
100
AcDbEntity
  8
HIDDEN
100
AcDbLine
 10
-419.0903576322455
 20
-159.5008315228
 30
0.0
 11
-419.0903576322456
 21
-159.5008315228
 31
0.0
1001
DBPROPERTIES
1002
{
1000
PbHidd
1002
}
  0
ARC
  5
105
330
1F
100
AcDbEntity
  8
HIDDEN
100
AcDbCircle
 10
-453.104678751735
 20
-130.2451622640008
 30
0.0
 40
44.86499999999998
100
AcDbArc
 50
130.6987777460004
 51
134.9999719140475
1001
DBPROPERTIES
1002
{
1000
PbHidd
1002
}
  0
LINE
  5
106
330
1F
100
AcDbEntity
  8
HIDDEN
100
AcDbLine
 10
-482.3603480105344
 20
-96.23084114451132
 30
0.0
 11
-482.3603480105343
 21
-96.23084114451132
 31
0.0
1001
DBPROPERTIES
1002
{
1000
PbHidd
1002
}
  0
ARC
  5
107
330
1F
100
AcDbEntity
  8
HIDDEN
100
AcDbCircle
 10
-377.397598970937
 20
-185.2495753958452
 30
0.0
 40
44.86499999999999
100
AcDbArc
 50
332.9999941580346
 51
337.3012456218612
1001
DBPROPERTIES
1002
{
1000
PbHidd
1002
}
  0
LINE
  5
108
330
1F
100
AcDbEntity
  8
HIDDEN
100
AcDbLine
 10
-336.0075582401091
 20
-202.562367004953
 30
0.0
 11
-336.0075582401092
 21
-202.562367004953
 31
0.0
1001
DBPROPERTIES
1002
{
1000
PbHidd
1002
}
  0
ARC
  5
109
330
1F
100
AcDbEntity
  8
HIDDEN
100
AcDbCircle
 10
-377.397598970937
 20
-185.2495753958452
 30
0.0
 40
44.86499999999999
100
AcDbArc
 50
148.6987625420508
 51
153.0000140058774
1001
DBPROPERTIES
1002
{
1000
PbHidd
1002
}
  0
LINE
  5
10A
330
1F
100
AcDbEntity
  8
HIDDEN
100
AcDbLine
 10
-415.732397136143
 20
-161.9405326305805
 30
0.0
 11
-415.7323971361429
 21
-161.9405326305805
 31
0.0
1001
DBPROPERTIES
1002
{
1000
PbHidd
1002
}
  0
ARC
  5
10B
330
1F
100
AcDbEntity
  8
HIDDEN
100
AcDbCircle
 10
-288.3985889923719
 20
-214.1671066831101
 30
0.0
 40
44.86499999999998
100
AcDbArc
 50
350.9999789540851
 51
355.3012304179116
1001
DBPROPERTIES
1002
{
1000
PbHidd
1002
}
  0
LINE
  5
10C
330
1F
100
AcDbEntity
  8
HIDDEN
100
AcDbLine
 10
-243.6843742183097
 20
-217.8423239745151
 30
0.0
 11
-243.6843742183097
 21
-217.8423239745151
 31
0.0
1001
DBPROPERTIES
1002
{
1000
PbHidd
1002
}
  0
ARC
  5
10D
330
1F
100
AcDbEntity
  8
HIDDEN
100
AcDbCircle
 10
-288.3985889923719
 20
-214.1671066831101
 30
0.0
 40
44.86499999999998
100
AcDbArc
 50
166.6988046338808
 51
170.9999988019279
1001
DBPROPERTIES
1002
{
1000
PbHidd
1002
}
  0
LINE
  5
10E
330
1F
100
AcDbEntity
  8
HIDDEN
100
AcDbLine
 10
-332.0600389253295
 20
-203.8449937815848
 30
0.0
 11
-332.0600389253294
 21
-203.8449937815848
 31
0.0
1001
DBPROPERTIES
1002
{
1000
PbHidd
1002
}
  0
ARC
  5
10F
330
1F
100
AcDbEntity
  8
HIDDEN
100
AcDbCircle
 10
-194.8194920053056
 20
-214.1671066831101
 30
0.0
 40
44.86499999999998
100
AcDbArc
 50
9.000021045914972
 51
13.30121521396206
1001
DBPROPERTIES
1002
{
1000
PbHidd
1002
}
  0
LINE
  5
110
330
1F
100
AcDbEntity
  8
HIDDEN
100
AcDbLine
 10
-151.1580420723479
 20
-203.8449937815849
 30
0.0
 11
-151.158042072348
 21
-203.8449937815849
 31
0.0
1001
DBPROPERTIES
1002
{
1000
PbHidd
1002
}
  0
ARC
  5
111
330
1F
100
AcDbEntity
  8
HIDDEN
100
AcDbCircle
 10
-194.8194920053056
 20
-214.1671066831101
 30
0.0
 40
44.86499999999998
100
AcDbArc
 50
184.6987497342455
 51
189.0000011980722
1001
DBPROPERTIES
1002
{
1000
PbHidd
1002
}
  0
LINE
  5
112
330
1F
100
AcDbEntity
  8
HIDDEN
100
AcDbLine
 10
-239.5337067793678
 20
-217.8423239745151
 30
0.0
 11
-239.5337067793677
 21
-217.8423239745151
 31
0.0
1001
DBPROPERTIES
1002
{
1000
PbHidd
1002
}
  0
ARC
  5
113
330
1F
100
AcDbEntity
  8
HIDDEN
100
AcDbCircle
 10
-105.8204820267403
 20
-185.2495753958452
 30
0.0
 40
44.86499999999999
100
AcDbArc
 50
27.0000058419654
 51
31.30120001001249
1001
DBPROPERTIES
1002
{
1000
PbHidd
1002
}
  0
LINE
  5
114
330
1F
100
AcDbEntity
  8
HIDDEN
100
AcDbLine
 10
-67.48568386153451
 20
-161.9405326305806
 30
0.0
 11
-67.48568386153457
 21
-161.9405326305806
 31
0.0
1001
DBPROPERTIES
1002
{
1000
PbHidd
1002
}
  0
ARC
  5
115
330
1F
100
AcDbEntity
  8
HIDDEN
100
AcDbCircle
 10
-105.8204820267403
 20
-185.2495753958452
 30
0.0
 40
44.86499999999999
100
AcDbArc
 50
202.6987918260755
 51
206.9999859941226
1001
DBPROPERTIES
1002
{
1000
PbHidd
1002
}
  0
LINE
  5
116
330
1F
100
AcDbEntity
  8
HIDDEN
100
AcDbLine
 10
-147.2105227575684
 20
-202.5623670049532
 30
0.0
 11
-147.2105227575683
 21
-202.5623670049532
 31
0.0
1001
DBPROPERTIES
1002
{
1000
PbHidd
1002
}
  0
ARC
  5
117
330
1F
100
AcDbEntity
  8
HIDDEN
100
AcDbCircle
 10
-30.11340224594241
 20
-130.2451622640008
 30
0.0
 40
44.86499999999998
100
AcDbArc
 50
44.99999063801582
 51
49.30124210184243
1001
DBPROPERTIES
1002
{
1000
PbHidd
1002
}
  0
LINE
  5
118
330
1F
100
AcDbEntity
  8
HIDDEN
100
AcDbLine
 10
-0.8577329871430669
 20
-96.23084114451132
 30
0.0
 11
-0.8577329871431288
 21
-96.23084114451132
 31
0.0
1001
DBPROPERTIES
1002
{
1000
PbHidd
1002
}
  0
ARC
  5
119
330
1F
100
AcDbEntity
  8
HIDDEN
100
AcDbCircle
 10
-30.11340224594241
 20
-130.2451622640008
 30
0.0
 40
44.86499999999998
100
AcDbArc
 50
220.6987766221259
 51
225.0000280859525
1001
DBPROPERTIES
1002
{
1000
PbHidd
1002
}
  0
LINE
  5
11A
330
1F
100
AcDbEntity
  8
HIDDEN
100
AcDbLine
 10
-64.12772336543188
 20
-159.5008315228001
 30
0.0
 11
-64.12772336543182
 21
-159.5008315228001
 31
0.0
1001
DBPROPERTIES
1002
{
1000
PbHidd
1002
}
  0
ARC
  5
11B
330
1F
100
AcDbEntity
  8
HIDDEN
100
AcDbCircle
 10
24.89101088590203
 20
-54.53808248320274
 30
0.0
 40
44.86499999999999
100
AcDbArc
 50
62.99997543406626
 51
67.30122689789286
1001
DBPROPERTIES
1002
{
1000
PbHidd
1002
}
  0
LINE
  5
11C
330
1F
100
AcDbEntity
  8
HIDDEN
100
AcDbLine
 10
42.20380249501002
 20
-13.14804175237481
 30
0.0
 11
42.20380249500997
 21
-13.14804175237481
 31
0.0
1001
DBPROPERTIES
1002
{
1000
PbHidd
1002
}
  0
ARC
  5
11D
330
1F
100
AcDbEntity
  8
HIDDEN
100
AcDbCircle
 10
24.89101088590203
 20
-54.53808248320274
 30
0.0
 40
44.86499999999999
100
AcDbArc
 50
238.6987614181764
 51
243.0000128820029
1001
DBPROPERTIES
1002
{
1000
PbHidd
1002
}
  0
LINE
  5
11E
330
1F
100
AcDbEntity
  8
HIDDEN
100
AcDbLine
 10
1.581968120637464
 20
-92.87288064840862
 30
0.0
 11
1.581968120637526
 21
-92.87288064840862
 31
0.0
1001
DBPROPERTIES
1002
{
1000
PbHidd
1002
}
  0
ARC
  5
11F
330
1F
100
AcDbEntity
  8
HIDDEN
100
AcDbCircle
 10
53.80854217316713
 20
34.46092749536263
 30
0.0
 40
44.86499999999998
100
AcDbArc
 50
81.0000175258962
 51
85.30121169394329
1001
DBPROPERTIES
1002
{
1000
PbHidd
1002
}
  0
LINE
  5
120
330
1F
100
AcDbEntity
  8
HIDDEN
100
AcDbLine
 10
57.48375946457205
 20
79.17514226942473
 30
0.0
 11
57.48375946457199
 21
79.17514226942473
 31
0.0
1001
DBPROPERTIES
1002
{
1000
PbHidd
1002
}
  0
ARC
  5
121
330
1F
100
AcDbEntity
  8
HIDDEN
100
AcDbCircle
 10
53.80854217316713
 20
34.46092749536263
 30
0.0
 40
44.86499999999998
100
AcDbArc
 50
256.6988035100063
 51
260.9999976780534
1001
DBPROPERTIES
1002
{
1000
PbHidd
1002
}
  0
LINE
  5
122
330
1F
100
AcDbEntity
  8
HIDDEN
100
AcDbLine
 10
43.48642927164175
 20
-9.200522437595055
 30
0.0
 11
43.48642927164181
 21
-9.200522437595055
 31
0.0
1001
DBPROPERTIES
1002
{
1000
PbHidd
1002
}
  0
ARC
  5
123
330
1F
100
AcDbEntity
  8
HIDDEN
100
AcDbCircle
 10
53.80854217316701
 20
128.0400244824286
 30
0.0
 40
44.86499999999998
100
AcDbArc
 50
99.00000232194662
 51
103.3011964899937
1001
DBPROPERTIES
1002
{
1000
PbHidd
1002
}
  0
LINE
  5
124
330
1F
100
AcDbEntity
  8
HIDDEN
100
AcDbLine
 10
43.48642927164192
 20
171.7014744153863
 30
0.0
 11
43.48642927164187
 21
171.7014744153863
 31
0.0
1001
DBPROPERTIES
1002
{
1000
PbHidd
1002
}
  0
ARC
  5
125
330
1F
100
AcDbEntity
  8
HIDDEN
100
AcDbCircle
 10
53.80854217316701
 20
128.0400244824286
 30
0.0
 40
44.86499999999998
100
AcDbArc
 50
274.6987883060567
 51
278.9999824741038
1001
DBPROPERTIES
1002
{
1000
PbHidd
1002
}
  0
LINE
  5
126
330
1F
100
AcDbEntity
  8
HIDDEN
100
AcDbLine
 10
57.48375946457199
 20
83.32580970836648
 30
0.0
 11
57.48375946457205
 21
83.32580970836648
 31
0.0
1001
DBPROPERTIES
1002
{
1000
PbHidd
1002
}
  0
ARC
  5
127
330
1F
100
AcDbEntity
  8
HIDDEN
100
AcDbCircle
 10
24.89101088590215
 20
217.0390344609939
 30
0.0
 40
44.86499999999999
100
AcDbArc
 50
116.9999871179971
 51
121.3012385818236
1001
DBPROPERTIES
1002
{
1000
PbHidd
1002
}
  0
LINE
  5
128
330
1F
100
AcDbEntity
  8
HIDDEN
100
AcDbLine
 10
1.581968120637639
 20
255.3738326261997
 30
0.0
 11
1.581968120637578
 21
255.3738326261997
 31
0.0
1001
DBPROPERTIES
1002
{
1000
PbHidd
1002
}
  0
ARC
  5
129
330
1F
100
AcDbEntity
  8
HIDDEN
100
AcDbCircle
 10
24.89101088590215
 20
217.0390344609939
 30
0.0
 40
44.86499999999999
100
AcDbArc
 50
292.6987731021071
 51
297.0000245659338
1001
DBPROPERTIES
1002
{
1000
PbHidd
1002
}
  0
LINE
  5
12A
330
1F
100
AcDbEntity
  8
HIDDEN
100
AcDbLine
 10
42.20380249501008
 20
175.648993730166
 30
0.0
 11
42.20380249501014
 21
175.648993730166
 31
0.0
1001
DBPROPERTIES
1002
{
1000
PbHidd
1002
}
  0
ARC
  5
12B
330
1F
100
AcDbEntity
  8
HIDDEN
100
AcDbCircle
 10
-30.1134022459423
 20
292.7461142417919
 30
0.0
 40
44.86499999999998
100
AcDbArc
 50
134.9999719140475
 51
139.3012233778741
1001
DBPROPERTIES
1002
{
1000
PbHidd
1002
}
  0
LINE
  5
12C
330
1F
100
AcDbEntity
  8
HIDDEN
100
AcDbLine
 10
-64.1277233654317
 20
322.0017835005913
 30
0.0
 11
-64.12772336543176
 21
322.0017835005913
 31
0.0
1001
DBPROPERTIES
1002
{
1000
PbHidd
1002
}
  0
ARC
  5
12D
330
1F
100
AcDbEntity
  8
HIDDEN
100
AcDbCircle
 10
-30.1134022459423
 20
292.7461142417919
 30
0.0
 40
44.86499999999998
100
AcDbArc
 50
310.6987578981576
 51
315.0000093619842
1001
DBPROPERTIES
1002
{
1000
PbHidd
1002
}
  0
LINE
  5
12E
330
1F
100
AcDbEntity
  8
HIDDEN
100
AcDbLine
 10
-0.8577329871430152
 20
258.7317931223024
 30
0.0
 11
-0.8577329871429532
 21
258.7317931223024
 31
0.0
1001
DBPROPERTIES
1002
{
1000
PbHidd
1002
}
  0
ARC
  5
12F
330
1F
100
AcDbEntity
  8
HIDDEN
100
AcDbCircle
 10
-241.6090404988386
 20
81.25047598889563
 30
0.0
 40
373.8749999999999
100
AcDbArc
 50
153.0000140058774
 51
332.9999941580346
1001
DBPROPERTIES
1002
{
1000
PbHidd
1002
}
  0
ARC
  5
130
330
1F
100
AcDbEntity
  8
THICK
100
AcDbCircle
 10
-241.6090404988386
 20
81.25047598889563
 30
0.0
 40
59.99999999999999
100
AcDbArc
 50
153.0000140058774
 51
332.9999941580346
1001
DBPROPERTIES
1002
{
1000
PbThick
1002
}
  0
ARC
  5
131
330
1F
100
AcDbEntity
  8
HIDDEN
100
AcDbCircle
 10
-241.6090404988386
 20
81.25047598889563
 30
0.0
 40
5.0
100
AcDbArc
 50
153.0000140058774
 51
332.9999941580346
1001
DBPROPERTIES
1002
{
1000
PbHidd
1002
}
  0
ARC
  5
132
330
1F
100
AcDbEntity
  8
THICK
100
AcDbCircle
 10
651.625
 20
-373.875
 30
0.0
 40
60.0
100
AcDbArc
 50
180.0000198478428
 51
0.0
1001
DBPROPERTIES
1002
{
1000
PbThick
1002
}
  0
ARC
  5
133
330
1F
100
AcDbEntity
  8
HIDDEN
100
AcDbCircle
 10
651.625
 20
-373.875
 30
0.0
 40
5.0
100
AcDbArc
 50
180.0000198478428
 51
0.0
1001
DBPROPERTIES
1002
{
1000
PbHidd
1002
}
  0
ARC
  5
134
330
1F
100
AcDbEntity
  8
HIDDEN
100
AcDbCircle
 10
-241.6090404988386
 20
81.25047598889563
 30
0.0
 40
49.99999999999999
100
AcDbArc
 50
254.4783628707563
 51
332.9999941580346
1001
DBPROPERTIES
1002
{
1000
PbHidd
1002
}
  0
LINE
  5
135
330
1F
100
AcDbEntity
  8
HIDDEN
100
AcDbLine
 10
-254.9891720066016
 20
33.07400786559951
 30
0.0
 11
-254.9891720066016
 21
33.07400786559951
 31
0.0
1001
DBPROPERTIES
1002
{
1000
PbHidd
1002
}
  0
ARC
  5
136
330
1F
100
AcDbEntity
  8
HIDDEN
100
AcDbCircle
 10
651.625
 20
-373.875
 30
0.0
 40
50.0
100
AcDbArc
 50
180.0000198478428
 51
231.5216628932496
1001
DBPROPERTIES
1002
{
1000
PbHidd
1002
}
  0
LINE
  5
137
330
1F
100
AcDbEntity
  8
HIDDEN
100
AcDbLine
 10
620.5140625332878
 20
-413.0171712471641
 30
0.0
 11
620.5140625332878
 21
-413.0171712471641
 31
0.0
1001
DBPROPERTIES
1002
{
1000
PbHidd
1002
}
  0
ARC
  5
138
330
1F
100
AcDbEntity
  8
HIDDEN
100
AcDbCircle
 10
-241.6090404988386
 20
81.25047598889569
 30
0.0
 40
55.0
100
AcDbArc
 50
62.99997543406626
 51
153.0000140058774
1001
DBPROPERTIES
1002
{
1000
PbHidd
1002
}
  0
LINE
  5
139
330
1F
100
AcDbEntity
  8
HIDDEN
100
AcDbLine
 10
-216.6395630131636
 20
130.2558348192559
 30
0.0
 11
-216.6395630131636
 21
130.2558348192559
 31
0.0
1001
DBPROPERTIES
1002
{
1000
PbHidd
1002
}
  0
ARC
  5
13A
330
1F
100
AcDbEntity
  8
HIDDEN
100
AcDbCircle
 10
651.625
 20
-373.8750000000001
 30
0.0
 40
55.0
100
AcDbArc
 50
332.9999941580346
 51
62.99997543406626
1001
DBPROPERTIES
1002
{
1000
PbHidd
1002
}
  0
LINE
  5
13B
330
1F
100
AcDbEntity
  8
HIDDEN
100
AcDbLine
 10
676.594477485675
 20
-324.8696411696398
 30
0.0
 11
676.594477485675
 21
-324.8696411696398
 31
0.0
1001
DBPROPERTIES
1002
{
1000
PbHidd
1002
}
  0
ARC
  5
13C
330
1F
100
AcDbEntity
  8
THICK
100
AcDbCircle
 10
-1042.1
 20
-647.5
 30
0.0
 40
7.5
100
AcDbArc
 50
180.0000198478428
 51
0.0
1001
DBPROPERTIES
1002
{
1000
PbThick
1002
}
  0
ARC
  5
13D
330
1F
100
AcDbEntity
  8
THICK
100
AcDbCircle
 10
1042.1
 20
-647.5
 30
0.0
 40
7.5
100
AcDbArc
 50
180.0000198478428
 51
0.0
1001
DBPROPERTIES
1002
{
1000
PbThick
1002
}
  0
LINE
  5
13E
330
1F
100
AcDbEntity
  8
HIDDEN
100
AcDbLine
 10
903.25
 20
-546.25
 30
0.0
 11
903.25
 21
-546.25
 31
0.0
1001
DBPROPERTIES
1002
{
1000
PbHidd
1002
}
  0
LINE
  5
13F
330
1F
100
AcDbEntity
  8
THICK
100
AcDbLine
 10
1102.75
 20
-546.25
 30
0.0
 11
903.2500000000001
 21
-546.25
 31
0.0
1001
DBPROPERTIES
1002
{
1000
PbThick
1002
}
  0
LINE
  5
140
330
1F
100
AcDbEntity
  8
HIDDEN
100
AcDbLine
 10
1102.75
 20
-546.25
 30
0.0
 11
1102.75
 21
-546.25
 31
0.0
1001
DBPROPERTIES
1002
{
1000
PbHidd
1002
}
  0
LINE
  5
141
330
1F
100
AcDbEntity
  8
HIDDEN
100
AcDbLine
 10
903.2500000000001
 20
-648.5
 30
0.0
 11
903.2500000000001
 21
-648.5
 31
0.0
1001
DBPROPERTIES
1002
{
1000
PbHidd
1002
}
  0
LINE
  5
142
330
1F
100
AcDbEntity
  8
THICK
100
AcDbLine
 10
903.2500000000001
 20
-546.25
 30
0.0
 11
903.2500000000001
 21
-648.5
 31
0.0
1001
DBPROPERTIES
1002
{
1000
PbThick
1002
}
  0
LINE
  5
143
330
1F
100
AcDbEntity
  8
HIDDEN
100
AcDbLine
 10
802.0
 20
-648.5
 30
0.0
 11
802.0
 21
-648.5
 31
0.0
1001
DBPROPERTIES
1002
{
1000
PbHidd
1002
}
  0
LINE
  5
144
330
1F
100
AcDbEntity
  8
THICK
100
AcDbLine
 10
903.25
 20
-648.5
 30
0.0
 11
802.0
 21
-648.5
 31
0.0
1001
DBPROPERTIES
1002
{
1000
PbThick
1002
}
  0
LINE
  5
145
330
1F
100
AcDbEntity
  8
HIDDEN
100
AcDbLine
 10
997.5
 20
-747.75
 30
0.0
 11
802.0
 21
-747.75
 31
0.0
1001
DBPROPERTIES
1002
{
1000
PbHidd
1002
}
  0
ARC
  5
146
330
1F
100
AcDbEntity
  8
HIDDEN
100
AcDbCircle
 10
997.4999999999999
 20
-742.75
 30
0.0
 40
5.0
100
AcDbArc
 50
270.0000187239684
 51
281.4783114169422
1001
DBPROPERTIES
1002
{
1000
PbHidd
1002
}
  0
LINE
  5
147
330
1F
100
AcDbEntity
  8
THICK
100
AcDbLine
 10
1102.75
 20
-547.25
 30
0.0
 11
1102.75
 21
-546.25
 31
0.0
1001
DBPROPERTIES
1002
{
1000
PbThick
1002
}
  0
LINE
  5
148
330
1F
100
AcDbEntity
  8
HIDDEN
100
AcDbLine
 10
1102.75
 20
-547.25
 30
0.0
 11
1102.75
 21
-547.25
 31
0.0
1001
DBPROPERTIES
1002
{
1000
PbHidd
1002
}
  0
LINE
  5
149
330
1F
100
AcDbEntity
  8
THICK
100
AcDbLine
 10
1203.0
 20
-647.4999999999999
 30
0.0
 11
1102.75
 21
-547.2499999999999
 31
0.0
1001
DBPROPERTIES
1002
{
1000
PbThick
1002
}
  0
LINE
  5
14A
330
1F
100
AcDbEntity
  8
HIDDEN
100
AcDbLine
 10
1203.0
 20
-647.5
 30
0.0
 11
1203.0
 21
-647.5
 31
0.0
1001
DBPROPERTIES
1002
{
1000
PbHidd
1002
}
  0
ARC
  5
14B
330
1F
100
AcDbEntity
  8
HIDDEN
100
AcDbCircle
 10
997.5000000000002
 20
-742.7500000000001
 30
0.0
 40
0.994987437105057
100
AcDbArc
 50
270.0000187239684
 51
0.0
1001
DBPROPERTIES
1002
{
1000
PbHidd
1002
}
  0
LINE
  5
14C
330
1F
100
AcDbEntity
  8
HIDDEN
100
AcDbLine
 10
998.4949874371073
 20
-546.25
 30
0.0
 11
998.4949874371073
 21
-742.75
 31
0.0
1001
DBPROPERTIES
1002
{
1000
PbHidd
1002
}
  0
LINE
  5
14D
330
1F
100
AcDbEntity
  8
HIDDEN
100
AcDbLine
 10
1203.0
 20
-747.65
 30
0.0
 11
802.0
 21
-747.65
 31
0.0
1001
DBPROPERTIES
1002
{
1000
PbHidd
1002
}
  0
LINE
  5
14E
330
1F
100
AcDbEntity
  8
HIDDEN
100
AcDbLine
 10
997.5000000000002
 20
-743.7449874371057
 30
0.0
 11
802.0
 21
-743.7449874371057
 31
0.0
1001
DBPROPERTIES
1002
{
1000
PbHidd
1002
}
  0
LINE
  5
14F
330
1F
100
AcDbEntity
  8
HIDDEN
100
AcDbLine
 10
802.0
 20
-747.6500000000001
 30
0.0
 11
802.0
 21
-747.6500000000001
 31
0.0
1001
DBPROPERTIES
1002
{
1000
PbHidd
1002
}
  0
LINE
  5
150
330
1F
100
AcDbEntity
  8
HIDDEN
100
AcDbLine
 10
802.0
 20
-747.75
 30
0.0
 11
802.0
 21
-747.75
 31
0.0
1001
DBPROPERTIES
1002
{
1000
PbHidd
1002
}
  0
LINE
  5
151
330
1F
100
AcDbEntity
  8
HIDDEN
100
AcDbLine
 10
802.0
 20
-750.75
 30
0.0
 11
802.0
 21
-750.75
 31
0.0
1001
DBPROPERTIES
1002
{
1000
PbHidd
1002
}
  0
LINE
  5
152
330
1F
100
AcDbEntity
  8
THICK
100
AcDbLine
 10
802.0
 20
-750.75
 30
0.0
 11
802.0
 21
-648.5
 31
0.0
1001
DBPROPERTIES
1002
{
1000
PbThick
1002
}
  0
ARC
  5
153
330
1F
100
AcDbEntity
  8
THICK
100
AcDbCircle
 10
1042.1
 20
-647.5
 30
0.0
 40
7.5
100
AcDbArc
 50
0.0
 51
180.0000198478428
1001
DBPROPERTIES
1002
{
1000
PbThick
1002
}
  0
LINE
  5
154
330
1F
100
AcDbEntity
  8
HIDDEN
100
AcDbLine
 10
1203.0
 20
-747.6500000000001
 30
0.0
 11
1203.0
 21
-747.6500000000001
 31
0.0
1001
DBPROPERTIES
1002
{
1000
PbHidd
1002
}
  0
LINE
  5
155
330
1F
100
AcDbEntity
  8
HIDDEN
100
AcDbLine
 10
998.4949874371067
 20
-747.65
 30
0.0
 11
998.4949874371067
 21
-747.65
 31
0.0
1001
DBPROPERTIES
1002
{
1000
PbHidd
1002
}
  0
LINE
  5
156
330
1F
100
AcDbEntity
  8
THICK
100
AcDbLine
 10
1203.0
 20
-647.5
 30
0.0
 11
1203.0
 21
-750.75
 31
0.0
1001
DBPROPERTIES
1002
{
1000
PbThick
1002
}
  0
LINE
  5
157
330
1F
100
AcDbEntity
  8
HIDDEN
100
AcDbLine
 10
1203.0
 20
-750.75
 30
0.0
 11
1203.0
 21
-750.75
 31
0.0
1001
DBPROPERTIES
1002
{
1000
PbHidd
1002
}
  0
LINE
  5
158
330
1F
100
AcDbEntity
  8
THICK
100
AcDbLine
 10
1203.0
 20
-750.75
 30
0.0
 11
802.0
 21
-750.75
 31
0.0
1001
DBPROPERTIES
1002
{
1000
PbThick
1002
}
  0
LINE
  5
159
330
1F
100
AcDbEntity
  8
HIDDEN
100
AcDbLine
 10
997.5000000000002
 20
-747.65
 30
0.0
 11
997.5000000000002
 21
-743.7449874371057
 31
0.0
1001
DBPROPERTIES
1002
{
1000
PbHidd
1002
}
  0
LINE
  5
15A
330
1F
100
AcDbEntity
  8
THICK
100
AcDbLine
 10
-802.0
 20
-742.7500000000001
 30
0.0
 11
802.0
 21
-742.7500000000001
 31
0.0
1001
DBPROPERTIES
1002
{
1000
PbThick
1002
}
  0
LINE
  5
15B
330
1F
100
AcDbEntity
  8
HIDDEN
100
AcDbLine
 10
-801.9999999999999
 20
-743.7449874371068
 30
0.0
 11
-997.4999999999999
 21
-743.7449874371068
 31
0.0
1001
DBPROPERTIES
1002
{
1000
PbHidd
1002
}
  0
LINE
  5
15C
330
1F
100
AcDbEntity
  8
HIDDEN
100
AcDbLine
 10
-997.4999999999998
 20
-747.65
 30
0.0
 11
-997.4999999999999
 21
-743.7449874371068
 31
0.0
1001
DBPROPERTIES
1002
{
1000
PbHidd
1002
}
  0
LINE
  5
15D
330
1F
100
AcDbEntity
  8
THICK
100
AcDbLine
 10
-802.0
 20
-747.75
 30
0.0
 11
802.0
 21
-747.75
 31
0.0
1001
DBPROPERTIES
1002
{
1000
PbThick
1002
}
  0
LINE
  5
15E
330
1F
100
AcDbEntity
  8
HIDDEN
100
AcDbLine
 10
998.4949874371073
 20
-742.75
 30
0.0
 11
1002.5
 21
-742.75
 31
0.0
1001
DBPROPERTIES
1002
{
1000
PbHidd
1002
}
  0
ARC
  5
15F
330
1F
100
AcDbEntity
  8
HIDDEN
100
AcDbCircle
 10
997.5
 20
-742.75
 30
0.0
 40
5.0
100
AcDbArc
 50
281.4783114169422
 51
0.0
1001
DBPROPERTIES
1002
{
1000
PbHidd
1002
}
  0
LINE
  5
160
330
1F
100
AcDbEntity
  8
HIDDEN
100
AcDbLine
 10
-903.2499999999999
 20
-648.5
 30
0.0
 11
-903.2499999999999
 21
-648.5
 31
0.0
1001
DBPROPERTIES
1002
{
1000
PbHidd
1002
}
  0
LINE
  5
161
330
1F
100
AcDbEntity
  8
HIDDEN
100
AcDbLine
 10
-903.25
 20
-546.25
 30
0.0
 11
-903.25
 21
-546.25
 31
0.0
1001
DBPROPERTIES
1002
{
1000
PbHidd
1002
}
  0
LINE
  5
162
330
1F
100
AcDbEntity
  8
THICK
100
AcDbLine
 10
-903.2499999999999
 20
-648.5
 30
0.0
 11
-903.2499999999999
 21
-546.25
 31
0.0
1001
DBPROPERTIES
1002
{
1000
PbThick
1002
}
  0
LINE
  5
163
330
1F
100
AcDbEntity
  8
HIDDEN
100
AcDbLine
 10
-1102.75
 20
-546.25
 30
0.0
 11
-1102.75
 21
-546.25
 31
0.0
1001
DBPROPERTIES
1002
{
1000
PbHidd
1002
}
  0
LINE
  5
164
330
1F
100
AcDbEntity
  8
THICK
100
AcDbLine
 10
-903.2499999999999
 20
-546.25
 30
0.0
 11
-1102.75
 21
-546.25
 31
0.0
1001
DBPROPERTIES
1002
{
1000
PbThick
1002
}
  0
LINE
  5
165
330
1F
100
AcDbEntity
  8
HIDDEN
100
AcDbLine
 10
-998.4949874371073
 20
-742.75
 30
0.0
 11
-998.4949874371073
 21
-546.25
 31
0.0
1001
DBPROPERTIES
1002
{
1000
PbHidd
1002
}
  0
ARC
  5
166
330
1F
100
AcDbEntity
  8
HIDDEN
100
AcDbCircle
 10
-997.4999999999998
 20
-742.7500000000001
 30
0.0
 40
0.9949874371072869
100
AcDbArc
 50
180.0000198478428
 51
270.0000187239684
1001
DBPROPERTIES
1002
{
1000
PbHidd
1002
}
  0
LINE
  5
167
330
1F
100
AcDbEntity
  8
HIDDEN
100
AcDbLine
 10
-802.0
 20
-747.65
 30
0.0
 11
-1203.0
 21
-747.65
 31
0.0
1001
DBPROPERTIES
1002
{
1000
PbHidd
1002
}
  0
ARC
  5
168
330
1F
100
AcDbEntity
  8
HIDDEN
100
AcDbCircle
 10
-997.5
 20
-742.7499999999999
 30
0.0
 40
5.0
100
AcDbArc
 50
258.521668735215
 51
270.0000187239684
1001
DBPROPERTIES
1002
{
1000
PbHidd
1002
}
  0
LINE
  5
169
330
1F
100
AcDbEntity
  8
HIDDEN
100
AcDbLine
 10
-802.0
 20
-747.75
 30
0.0
 11
-997.5
 21
-747.75
 31
0.0
1001
DBPROPERTIES
1002
{
1000
PbHidd
1002
}
  0
LINE
  5
16A
330
1F
100
AcDbEntity
  8
HIDDEN
100
AcDbLine
 10
-1102.75
 20
-547.25
 30
0.0
 11
-1102.75
 21
-547.25
 31
0.0
1001
DBPROPERTIES
1002
{
1000
PbHidd
1002
}
  0
LINE
  5
16B
330
1F
100
AcDbEntity
  8
THICK
100
AcDbLine
 10
-1102.75
 20
-546.25
 30
0.0
 11
-1102.75
 21
-547.25
 31
0.0
1001
DBPROPERTIES
1002
{
1000
PbThick
1002
}
  0
LINE
  5
16C
330
1F
100
AcDbEntity
  8
HIDDEN
100
AcDbLine
 10
-1203.0
 20
-647.5
 30
0.0
 11
-1203.0
 21
-647.5
 31
0.0
1001
DBPROPERTIES
1002
{
1000
PbHidd
1002
}
  0
LINE
  5
16D
330
1F
100
AcDbEntity
  8
THICK
100
AcDbLine
 10
-1102.75
 20
-547.25
 30
0.0
 11
-1203.0
 21
-647.5
 31
0.0
1001
DBPROPERTIES
1002
{
1000
PbThick
1002
}
  0
LINE
  5
16E
330
1F
100
AcDbEntity
  8
THICK
100
AcDbLine
 10
-1203.0
 20
-750.75
 30
0.0
 11
-1203.0
 21
-647.5
 31
0.0
1001
DBPROPERTIES
1002
{
1000
PbThick
1002
}
  0
LINE
  5
16F
330
1F
100
AcDbEntity
  8
THICK
100
AcDbLine
 10
-802.0
 20
-750.75
 30
0.0
 11
-1203.0
 21
-750.75
 31
0.0
1001
DBPROPERTIES
1002
{
1000
PbThick
1002
}
  0
LINE
  5
170
330
1F
100
AcDbEntity
  8
THICK
100
AcDbLine
 10
-802.0
 20
-648.5
 30
0.0
 11
-802.0
 21
-750.75
 31
0.0
1001
DBPROPERTIES
1002
{
1000
PbThick
1002
}
  0
LINE
  5
171
330
1F
100
AcDbEntity
  8
THICK
100
AcDbLine
 10
-802.0
 20
-648.5
 30
0.0
 11
-903.25
 21
-648.5
 31
0.0
1001
DBPROPERTIES
1002
{
1000
PbThick
1002
}
  0
ARC
  5
172
330
1F
100
AcDbEntity
  8
THICK
100
AcDbCircle
 10
-1042.1
 20
-647.5
 30
0.0
 40
7.5
100
AcDbArc
 50
0.0
 51
180.0000198478428
1001
DBPROPERTIES
1002
{
1000
PbThick
1002
}
  0
LINE
  5
173
330
1F
100
AcDbEntity
  8
HIDDEN
100
AcDbLine
 10
-802.0
 20
-648.5
 30
0.0
 11
-802.0
 21
-648.5
 31
0.0
1001
DBPROPERTIES
1002
{
1000
PbHidd
1002
}
  0
LINE
  5
174
330
1F
100
AcDbEntity
  8
HIDDEN
100
AcDbLine
 10
-998.494987437106
 20
-747.65
 30
0.0
 11
-998.494987437106
 21
-747.65
 31
0.0
1001
DBPROPERTIES
1002
{
1000
PbHidd
1002
}
  0
LINE
  5
175
330
1F
100
AcDbEntity
  8
HIDDEN
100
AcDbLine
 10
-1203.0
 20
-747.6500000000001
 30
0.0
 11
-1203.0
 21
-747.6500000000001
 31
0.0
1001
DBPROPERTIES
1002
{
1000
PbHidd
1002
}
  0
LINE
  5
176
330
1F
100
AcDbEntity
  8
HIDDEN
100
AcDbLine
 10
-802.0
 20
-747.6500000000001
 30
0.0
 11
-802.0
 21
-747.6500000000001
 31
0.0
1001
DBPROPERTIES
1002
{
1000
PbHidd
1002
}
  0
LINE
  5
177
330
1F
100
AcDbEntity
  8
HIDDEN
100
AcDbLine
 10
-1203.0
 20
-750.75
 30
0.0
 11
-1203.0
 21
-750.75
 31
0.0
1001
DBPROPERTIES
1002
{
1000
PbHidd
1002
}
  0
LINE
  5
178
330
1F
100
AcDbEntity
  8
HIDDEN
100
AcDbLine
 10
-802.0
 20
-750.75
 30
0.0
 11
-802.0
 21
-750.75
 31
0.0
1001
DBPROPERTIES
1002
{
1000
PbHidd
1002
}
  0
LINE
  5
179
330
1F
100
AcDbEntity
  8
HIDDEN
100
AcDbLine
 10
-802.0
 20
-747.75
 30
0.0
 11
-802.0
 21
-747.75
 31
0.0
1001
DBPROPERTIES
1002
{
1000
PbHidd
1002
}
  0
LINE
  5
17A
330
1F
100
AcDbEntity
  8
THICK
100
AcDbLine
 10
997.5
 20
-546.25
 30
0.0
 11
997.5
 21
742.75
 31
0.0
1001
DBPROPERTIES
1002
{
1000
PbThick
1002
}
  0
LINE
  5
17B
330
1F
100
AcDbEntity
  8
THICK
100
AcDbLine
 10
-997.4999999999999
 20
742.75
 30
0.0
 11
997.5
 21
742.75
 31
0.0
1001
DBPROPERTIES
1002
{
1000
PbThick
1002
}
  0
LINE
  5
17C
330
1F
100
AcDbEntity
  8
THICK
100
AcDbLine
 10
-997.4999999999999
 20
-546.25
 30
0.0
 11
-997.4999999999999
 21
742.75
 31
0.0
1001
DBPROPERTIES
1002
{
1000
PbThick
1002
}
  0
LINE
  5
17D
330
1F
100
AcDbEntity
  8
THICK
100
AcDbLine
 10
902.2500000000001
 20
647.5
 30
0.0
 11
902.2500000000001
 21
-647.5
 31
0.0
1001
DBPROPERTIES
1002
{
1000
PbThick
1002
}
  0
LINE
  5
17E
330
1F
100
AcDbEntity
  8
THICK
100
AcDbLine
 10
902.2500000000001
 20
-647.5
 30
0.0
 11
-902.2499999999999
 21
-647.5
 31
0.0
1001
DBPROPERTIES
1002
{
1000
PbThick
1002
}
  0
LINE
  5
17F
330
1F
100
AcDbEntity
  8
THICK
100
AcDbLine
 10
-902.2499999999999
 20
-647.5
 30
0.0
 11
-902.2499999999999
 21
647.5
 31
0.0
1001
DBPROPERTIES
1002
{
1000
PbThick
1002
}
  0
LINE
  5
180
330
1F
100
AcDbEntity
  8
HIDDEN
100
AcDbLine
 10
-903.25
 20
-546.25
 30
0.0
 11
-903.25
 21
-546.25
 31
0.0
1001
DBPROPERTIES
1002
{
1000
PbHidd
1002
}
  0
LINE
  5
181
330
1F
100
AcDbEntity
  8
HIDDEN
100
AcDbLine
 10
-1102.75
 20
-546.25
 30
0.0
 11
-1102.75
 21
-546.25
 31
0.0
1001
DBPROPERTIES
1002
{
1000
PbHidd
1002
}
  0
LINE
  5
182
330
1F
100
AcDbEntity
  8
HIDDEN
100
AcDbLine
 10
-903.2500000000001
 20
-648.5
 30
0.0
 11
-903.2500000000001
 21
-648.5
 31
0.0
1001
DBPROPERTIES
1002
{
1000
PbHidd
1002
}
  0
LINE
  5
183
330
1F
100
AcDbEntity
  8
HIDDEN
100
AcDbLine
 10
-802.0
 20
-648.5
 30
0.0
 11
-802.0
 21
-648.5
 31
0.0
1001
DBPROPERTIES
1002
{
1000
PbHidd
1002
}
  0
LINE
  5
184
330
1F
100
AcDbEntity
  8
HIDDEN
100
AcDbLine
 10
-1102.75
 20
-547.25
 30
0.0
 11
-1102.75
 21
-547.25
 31
0.0
1001
DBPROPERTIES
1002
{
1000
PbHidd
1002
}
  0
LINE
  5
185
330
1F
100
AcDbEntity
  8
HIDDEN
100
AcDbLine
 10
-1203.0
 20
-647.5
 30
0.0
 11
-1203.0
 21
-647.5
 31
0.0
1001
DBPROPERTIES
1002
{
1000
PbHidd
1002
}
  0
ARC
  5
186
330
1F
100
AcDbEntity
  8
HIDDEN
100
AcDbCircle
 10
-997.5000000000001
 20
-742.7499999999999
 30
0.0
 40
0.9949874371072922
100
AcDbArc
 50
179.9999801521572
 51
270.0000187239684
1001
DBPROPERTIES
1002
{
1000
PbHidd
1002
}
  0
LINE
  5
187
330
1F
100
AcDbEntity
  8
HIDDEN
100
AcDbLine
 10
-998.4949874371074
 20
-546.25
 30
0.0
 11
-998.4949874371074
 21
-742.75
 31
0.0
1001
DBPROPERTIES
1002
{
1000
PbHidd
1002
}
  0
LINE
  5
188
330
1F
100
AcDbEntity
  8
HIDDEN
100
AcDbLine
 10
-997.5000000000001
 20
-743.7449874371072
 30
0.0
 11
-802.0000000000001
 21
-743.7449874371072
 31
0.0
1001
DBPROPERTIES
1002
{
1000
PbHidd
1002
}
  0
LINE
  5
189
330
1F
100
AcDbEntity
  8
HIDDEN
100
AcDbLine
 10
-802.0000000000001
 20
-747.6500000000001
 30
0.0
 11
-802.0000000000001
 21
-747.6500000000001
 31
0.0
1001
DBPROPERTIES
1002
{
1000
PbHidd
1002
}
  0
LINE
  5
18A
330
1F
100
AcDbEntity
  8
HIDDEN
100
AcDbLine
 10
-802.0
 20
-747.75
 30
0.0
 11
-802.0
 21
-747.75
 31
0.0
1001
DBPROPERTIES
1002
{
1000
PbHidd
1002
}
  0
LINE
  5
18B
330
1F
100
AcDbEntity
  8
HIDDEN
100
AcDbLine
 10
-802.0000000000001
 20
-750.75
 30
0.0
 11
-802.0000000000001
 21
-750.75
 31
0.0
1001
DBPROPERTIES
1002
{
1000
PbHidd
1002
}
  0
LINE
  5
18C
330
1F
100
AcDbEntity
  8
HIDDEN
100
AcDbLine
 10
-1203.0
 20
-747.6500000000001
 30
0.0
 11
-1203.0
 21
-747.6500000000001
 31
0.0
1001
DBPROPERTIES
1002
{
1000
PbHidd
1002
}
  0
LINE
  5
18D
330
1F
100
AcDbEntity
  8
HIDDEN
100
AcDbLine
 10
-998.4949874371064
 20
-747.65
 30
0.0
 11
-998.4949874371064
 21
-747.65
 31
0.0
1001
DBPROPERTIES
1002
{
1000
PbHidd
1002
}
  0
LINE
  5
18E
330
1F
100
AcDbEntity
  8
HIDDEN
100
AcDbLine
 10
-1203.0
 20
-750.75
 30
0.0
 11
-1203.0
 21
-750.75
 31
0.0
1001
DBPROPERTIES
1002
{
1000
PbHidd
1002
}
  0
LINE
  5
18F
330
1F
100
AcDbEntity
  8
HIDDEN
100
AcDbLine
 10
-997.5000000000001
 20
-743.7449874371072
 30
0.0
 11
-997.5000000000001
 21
-747.65
 31
0.0
1001
DBPROPERTIES
1002
{
1000
PbHidd
1002
}
  0
LINE
  5
190
330
1F
100
AcDbEntity
  8
HIDDEN
100
AcDbLine
 10
-802.0000000000001
 20
-742.7499999999999
 30
0.0
 11
801.9999999999999
 21
-742.7499999999999
 31
0.0
1001
DBPROPERTIES
1002
{
1000
PbHidd
1002
}
  0
LINE
  5
191
330
1F
100
AcDbEntity
  8
HIDDEN
100
AcDbLine
 10
801.9999999999999
 20
-743.7449874371072
 30
0.0
 11
997.4999999999999
 21
-743.7449874371072
 31
0.0
1001
DBPROPERTIES
1002
{
1000
PbHidd
1002
}
  0
LINE
  5
192
330
1F
100
AcDbEntity
  8
HIDDEN
100
AcDbLine
 10
997.4999999999999
 20
-743.7449874371072
 30
0.0
 11
997.4999999999999
 21
-747.65
 31
0.0
1001
DBPROPERTIES
1002
{
1000
PbHidd
1002
}
  0
LINE
  5
193
330
1F
100
AcDbEntity
  8
HIDDEN
100
AcDbLine
 10
-1002.5
 20
-742.7499999999999
 30
0.0
 11
-998.4949874371074
 21
-742.75
 31
0.0
1001
DBPROPERTIES
1002
{
1000
PbHidd
1002
}
  0
LINE
  5
194
330
1F
100
AcDbEntity
  8
HIDDEN
100
AcDbLine
 10
903.2499999999999
 20
-648.5
 30
0.0
 11
903.2499999999999
 21
-648.5
 31
0.0
1001
DBPROPERTIES
1002
{
1000
PbHidd
1002
}
  0
LINE
  5
195
330
1F
100
AcDbEntity
  8
HIDDEN
100
AcDbLine
 10
903.25
 20
-546.25
 30
0.0
 11
903.25
 21
-546.25
 31
0.0
1001
DBPROPERTIES
1002
{
1000
PbHidd
1002
}
  0
LINE
  5
196
330
1F
100
AcDbEntity
  8
HIDDEN
100
AcDbLine
 10
1102.75
 20
-546.25
 30
0.0
 11
1102.75
 21
-546.25
 31
0.0
1001
DBPROPERTIES
1002
{
1000
PbHidd
1002
}
  0
LINE
  5
197
330
1F
100
AcDbEntity
  8
HIDDEN
100
AcDbLine
 10
998.4949874371063
 20
-742.75
 30
0.0
 11
998.4949874371063
 21
-546.25
 31
0.0
1001
DBPROPERTIES
1002
{
1000
PbHidd
1002
}
  0
ARC
  5
198
330
1F
100
AcDbEntity
  8
HIDDEN
100
AcDbCircle
 10
997.4999999999999
 20
-742.7499999999999
 30
0.0
 40
0.9949874371072922
100
AcDbArc
 50
270.0000187239684
 51
0.0
1001
DBPROPERTIES
1002
{
1000
PbHidd
1002
}
  0
LINE
  5
199
330
1F
100
AcDbEntity
  8
HIDDEN
100
AcDbLine
 10
801.9999999999999
 20
-747.6500000000001
 30
0.0
 11
801.9999999999999
 21
-747.6500000000001
 31
0.0
1001
DBPROPERTIES
1002
{
1000
PbHidd
1002
}
  0
LINE
  5
19A
330
1F
100
AcDbEntity
  8
HIDDEN
100
AcDbLine
 10
998.494987437107
 20
-747.65
 30
0.0
 11
998.494987437107
 21
-747.65
 31
0.0
1001
DBPROPERTIES
1002
{
1000
PbHidd
1002
}
  0
LINE
  5
19B
330
1F
100
AcDbEntity
  8
HIDDEN
100
AcDbLine
 10
1203.0
 20
-747.6500000000001
 30
0.0
 11
1203.0
 21
-747.6500000000001
 31
0.0
1001
DBPROPERTIES
1002
{
1000
PbHidd
1002
}
  0
LINE
  5
19C
330
1F
100
AcDbEntity
  8
HIDDEN
100
AcDbLine
 10
1102.75
 20
-547.25
 30
0.0
 11
1102.75
 21
-547.25
 31
0.0
1001
DBPROPERTIES
1002
{
1000
PbHidd
1002
}
  0
LINE
  5
19D
330
1F
100
AcDbEntity
  8
HIDDEN
100
AcDbLine
 10
1203.0
 20
-647.5
 30
0.0
 11
1203.0
 21
-647.5
 31
0.0
1001
DBPROPERTIES
1002
{
1000
PbHidd
1002
}
  0
LINE
  5
19E
330
1F
100
AcDbEntity
  8
HIDDEN
100
AcDbLine
 10
802.0
 20
-648.5
 30
0.0
 11
802.0
 21
-648.5
 31
0.0
1001
DBPROPERTIES
1002
{
1000
PbHidd
1002
}
  0
LINE
  5
19F
330
1F
100
AcDbEntity
  8
HIDDEN
100
AcDbLine
 10
1203.0
 20
-750.75
 30
0.0
 11
1203.0
 21
-750.75
 31
0.0
1001
DBPROPERTIES
1002
{
1000
PbHidd
1002
}
  0
LINE
  5
1A0
330
1F
100
AcDbEntity
  8
HIDDEN
100
AcDbLine
 10
801.9999999999999
 20
-750.75
 30
0.0
 11
801.9999999999999
 21
-750.75
 31
0.0
1001
DBPROPERTIES
1002
{
1000
PbHidd
1002
}
  0
LINE
  5
1A1
330
1F
100
AcDbEntity
  8
HIDDEN
100
AcDbLine
 10
802.0
 20
-747.75
 30
0.0
 11
802.0
 21
-747.75
 31
0.0
1001
DBPROPERTIES
1002
{
1000
PbHidd
1002
}
  0
LINE
  5
1A2
330
1F
100
AcDbEntity
  8
HIDDEN
100
AcDbLine
 10
-997.5000000000001
 20
-546.25
 30
0.0
 11
-997.5000000000001
 21
742.75
 31
0.0
1001
DBPROPERTIES
1002
{
1000
PbHidd
1002
}
  0
LINE
  5
1A3
330
1F
100
AcDbEntity
  8
HIDDEN
100
AcDbLine
 10
-997.5000000000001
 20
742.75
 30
0.0
 11
997.5
 21
742.75
 31
0.0
1001
DBPROPERTIES
1002
{
1000
PbHidd
1002
}
  0
LINE
  5
1A4
330
1F
100
AcDbEntity
  8
HIDDEN
100
AcDbLine
 10
997.5
 20
-546.25
 30
0.0
 11
997.5
 21
742.75
 31
0.0
1001
DBPROPERTIES
1002
{
1000
PbHidd
1002
}
  0
LINE
  5
1A5
330
1F
100
AcDbEntity
  8
HIDDEN
100
AcDbLine
 10
-997.4999999999999
 20
-747.75
 30
0.0
 11
-997.5000000000001
 21
-747.75
 31
0.0
1001
DBPROPERTIES
1002
{
1000
PbHidd
1002
}
  0
LINE
  5
1A6
330
1F
100
AcDbEntity
  8
HIDDEN
100
AcDbLine
 10
997.4999999999999
 20
-747.75
 30
0.0
 11
997.4999999999999
 21
-747.75
 31
0.0
1001
DBPROPERTIES
1002
{
1000
PbHidd
1002
}
  0
LINE
  5
1A7
330
1F
100
AcDbEntity
  8
HIDDEN
100
AcDbLine
 10
1002.5
 20
-742.7499999999999
 30
0.0
 11
1002.5
 21
-742.7500000000001
 31
0.0
1001
DBPROPERTIES
1002
{
1000
PbHidd
1002
}
  0
LINE
  5
1A8
330
1F
100
AcDbEntity
  8
HIDDEN
100
AcDbLine
 10
665.005131507763
 20
-325.6985318767038
 30
0.0
 11
665.005131507763
 21
-325.6985318767038
 31
0.0
1001
DBPROPERTIES
1002
{
1000
PbHidd
1002
}
  0
LINE
  5
1A9
330
1F
100
AcDbEntity
  8
HIDDEN
100
AcDbLine
 10
643.0180263436632
 20
-314.4955422348846
 30
0.0
 11
665.005131507763
 21
-325.6985318767039
 31
0.0
1001
DBPROPERTIES
1002
{
1000
PbHidd
1002
}
  0
LINE
  5
1AA
330
1F
100
AcDbEntity
  8
THICK
100
AcDbLine
 10
-188.5109978680262
 20
109.1896575942403
 30
0.0
 11
643.0180263436632
 21
-314.4955422348846
 31
0.0
1001
DBPROPERTIES
1002
{
1000
PbThick
1002
}
  0
LINE
  5
1AB
330
1F
100
AcDbEntity
  8
HIDDEN
100
AcDbLine
 10
-210.4981030321264
 20
120.3926472360597
 30
0.0
 11
-188.5109978680263
 21
109.1896575942403
 31
0.0
1001
DBPROPERTIES
1002
{
1000
PbHidd
1002
}
  0
LINE
  5
1AC
330
1F
100
AcDbEntity
  8
HIDDEN
100
AcDbLine
 10
-210.4981030321264
 20
120.3926472360597
 30
0.0
 11
-210.4981030321264
 21
120.3926472360597
 31
0.0
1001
DBPROPERTIES
1002
{
1000
PbHidd
1002
}
  0
LINE
  5
1AD
330
1F
100
AcDbEntity
  8
THICK
100
AcDbLine
 10
-195.2739771322642
 20
119.3695250695788
 30
0.0
 11
655.2288916047755
 21
-313.9833314199627
 31
0.0
1001
DBPROPERTIES
1002
{
1000
PbThick
1002
}
  0
LINE
  5
1AE
330
1F
100
AcDbEntity
  8
THICK
100
AcDbLine
 10
605.2899366334257
 20
-411.9940490806832
 30
0.0
 11
-245.2129321036142
 21
21.35880740885833
 31
0.0
1001
DBPROPERTIES
1002
{
1000
PbThick
1002
}
  0
LINE
  5
1AF
330
1F
100
AcDbEntity
  8
THICK
100
AcDbLine
 10
598.5269573691876
 20
-401.8141816053446
 30
0.0
 11
-233.0020668425017
 21
21.87101822378023
 31
0.0
1001
DBPROPERTIES
1002
{
1000
PbThick
1002
}
  0
LINE
  5
1B0
330
1F
100
AcDbEntity
  8
HIDDEN
100
AcDbLine
 10
620.5140625332878
 20
-413.0171712471641
 30
0.0
 11
598.5269573691876
 21
-401.8141816053447
 31
0.0
1001
DBPROPERTIES
1002
{
1000
PbHidd
1002
}
  0
LINE
  5
1B1
330
1F
100
AcDbEntity
  8
HIDDEN
100
AcDbLine
 10
-233.0020668425017
 20
21.87101822378024
 30
0.0
 11
-254.9891720066016
 21
33.07400786559953
 31
0.0
1001
DBPROPERTIES
1002
{
1000
PbHidd
1002
}
  0
LINE
  5
1B2
330
1F
100
AcDbEntity
  8
HIDDEN
100
AcDbLine
 10
-195.2739771322642
 20
119.3695250695788
 30
0.0
 11
-216.6395630131636
 21
130.2558348192559
 31
0.0
1001
DBPROPERTIES
1002
{
1000
PbHidd
1002
}
  0
LINE
  5
1B3
330
1F
100
AcDbEntity
  8
HIDDEN
100
AcDbLine
 10
676.594477485675
 20
-324.8696411696398
 30
0.0
 11
655.2288916047755
 21
-313.9833314199627
 31
0.0
1001
DBPROPERTIES
1002
{
1000
PbHidd
1002
}
  0
ARC
  5
1B4
330
1F
100
AcDbEntity
  8
HIDDEN
100
AcDbCircle
 10
651.625
 20
-373.8750000000001
 30
0.0
 40
55.0
100
AcDbArc
 50
243.0000128820029
 51
332.9999941580346
1001
DBPROPERTIES
1002
{
1000
PbHidd
1002
}
  0
LINE
  5
1B5
330
1F
100
AcDbEntity
  8
HIDDEN
100
AcDbLine
 10
626.655522514325
 20
-422.8803588303603
 30
0.0
 11
626.655522514325
 21
-422.8803588303603
 31
0.0
1001
DBPROPERTIES
1002
{
1000
PbHidd
1002
}
  0
LINE
  5
1B6
330
1F
100
AcDbEntity
  8
HIDDEN
100
AcDbLine
 10
605.2899366334257
 20
-411.9940490806832
 30
0.0
 11
626.655522514325
 21
-422.8803588303603
 31
0.0
1001
DBPROPERTIES
1002
{
1000
PbHidd
1002
}
  0
LINE
  5
1B7
330
1F
100
AcDbEntity
  8
HIDDEN
100
AcDbLine
 10
-266.5785179845138
 20
32.24511715853548
 30
0.0
 11
-245.2129321036142
 21
21.35880740885833
 31
0.0
1001
DBPROPERTIES
1002
{
1000
PbHidd
1002
}
  0
LINE
  5
1B8
330
1F
100
AcDbEntity
  8
HIDDEN
100
AcDbLine
 10
-266.5785179845138
 20
32.24511715853549
 30
0.0
 11
-266.5785179845138
 21
32.24511715853549
 31
0.0
1001
DBPROPERTIES
1002
{
1000
PbHidd
1002
}
  0
ARC
  5
1B9
330
1F
100
AcDbEntity
  8
HIDDEN
100
AcDbCircle
 10
-241.6090404988386
 20
81.25047598889569
 30
0.0
 40
55.0
100
AcDbArc
 50
153.0000140058774
 51
243.0000128820029
1001
DBPROPERTIES
1002
{
1000
PbHidd
1002
}
  0
ARC
  5
1BA
330
1F
100
AcDbEntity
  8
HIDDEN
100
AcDbCircle
 10
651.625
 20
-373.875
 30
0.0
 40
50.0
100
AcDbArc
 50
74.47832542281961
 51
180.0000198478428
1001
DBPROPERTIES
1002
{
1000
PbHidd
1002
}
  0
ARC
  5
1BB
330
1F
100
AcDbEntity
  8
HIDDEN
100
AcDbCircle
 10
-241.6090404988386
 20
81.25047598889563
 30
0.0
 40
49.99999999999999
100
AcDbArc
 50
332.9999941580346
 51
51.52168274109243
1001
DBPROPERTIES
1002
{
1000
PbHidd
1002
}
  0
ARC
  5
1BC
330
1F
100
AcDbEntity
  8
HIDDEN
100
AcDbCircle
 10
651.625
 20
-373.875
 30
0.0
 40
5.0
100
AcDbArc
 50
0.0
 51
180.0000198478428
1001
DBPROPERTIES
1002
{
1000
PbHidd
1002
}
  0
ARC
  5
1BD
330
1F
100
AcDbEntity
  8
THICK
100
AcDbCircle
 10
651.625
 20
-373.875
 30
0.0
 40
60.0
100
AcDbArc
 50
0.0
 51
180.0000198478428
1001
DBPROPERTIES
1002
{
1000
PbThick
1002
}
  0
ARC
  5
1BE
330
1F
100
AcDbEntity
  8
HIDDEN
100
AcDbCircle
 10
-241.6090404988386
 20
81.25047598889563
 30
0.0
 40
5.0
100
AcDbArc
 50
332.9999941580346
 51
153.0000140058774
1001
DBPROPERTIES
1002
{
1000
PbHidd
1002
}
  0
ARC
  5
1BF
330
1F
100
AcDbEntity
  8
THICK
100
AcDbCircle
 10
-241.6090404988386
 20
81.25047598889563
 30
0.0
 40
59.99999999999999
100
AcDbArc
 50
332.9999941580346
 51
153.0000140058774
1001
DBPROPERTIES
1002
{
1000
PbThick
1002
}
  0
ARC
  5
1C0
330
1F
100
AcDbEntity
  8
HIDDEN
100
AcDbCircle
 10
-241.6090404988386
 20
81.25047598889563
 30
0.0
 40
373.8749999999999
100
AcDbArc
 50
332.9999941580346
 51
153.0000140058774
1001
DBPROPERTIES
1002
{
1000
PbHidd
1002
}
  0
ARC
  5
1C1
330
1F
100
AcDbEntity
  8
HIDDEN
100
AcDbCircle
 10
-30.1134022459423
 20
292.7461142417919
 30
0.0
 40
44.86499999999998
100
AcDbArc
 50
315.0000093619842
 51
134.9999719140475
1001
DBPROPERTIES
1002
{
1000
PbHidd
1002
}
  0
ARC
  5
1C2
330
1F
100
AcDbEntity
  8
HIDDEN
100
AcDbCircle
 10
-241.6090404988387
 20
81.25047598889563
 30
0.0
 40
299.1
100
AcDbArc
 50
35.60245147383909
 51
36.39754500614214
1001
DBPROPERTIES
1002
{
1000
PbHidd
1002
}
  0
ARC
  5
1C3
330
1F
100
AcDbEntity
  8
HIDDEN
100
AcDbCircle
 10
24.89101088590215
 20
217.0390344609939
 30
0.0
 40
44.86499999999999
100
AcDbArc
 50
297.0000245659338
 51
116.9999871179971
1001
DBPROPERTIES
1002
{
1000
PbHidd
1002
}
  0
ARC
  5
1C4
330
1F
100
AcDbEntity
  8
HIDDEN
100
AcDbCircle
 10
-241.6090404988387
 20
81.25047598889563
 30
0.0
 40
299.1
100
AcDbArc
 50
17.60246667778866
 51
18.39756021009171
1001
DBPROPERTIES
1002
{
1000
PbHidd
1002
}
  0
ARC
  5
1C5
330
1F
100
AcDbEntity
  8
HIDDEN
100
AcDbCircle
 10
53.80854217316701
 20
128.0400244824286
 30
0.0
 40
44.86499999999998
100
AcDbArc
 50
278.9999824741038
 51
99.00000232194662
1001
DBPROPERTIES
1002
{
1000
PbHidd
1002
}
  0
ARC
  5
1C6
330
1F
100
AcDbEntity
  8
HIDDEN
100
AcDbCircle
 10
-241.6090404988387
 20
81.25047598889563
 30
0.0
 40
299.1
100
AcDbArc
 50
359.6024245859587
 51
0.3975754140412783
1001
DBPROPERTIES
1002
{
1000
PbHidd
1002
}
  0
ARC
  5
1C7
330
1F
100
AcDbEntity
  8
HIDDEN
100
AcDbCircle
 10
53.80854217316713
 20
34.46092749536263
 30
0.0
 40
44.86499999999998
100
AcDbArc
 50
260.9999976780534
 51
81.0000175258962
1001
DBPROPERTIES
1002
{
1000
PbHidd
1002
}
  0
ARC
  5
1C8
330
1F
100
AcDbEntity
  8
HIDDEN
100
AcDbCircle
 10
-241.6090404988387
 20
81.25047598889563
 30
0.0
 40
299.1
100
AcDbArc
 50
341.6024397899083
 51
342.3975333222114
1001
DBPROPERTIES
1002
{
1000
PbHidd
1002
}
  0
ARC
  5
1C9
330
1F
100
AcDbEntity
  8
HIDDEN
100
AcDbCircle
 10
24.89101088590203
 20
-54.53808248320274
 30
0.0
 40
44.86499999999999
100
AcDbArc
 50
243.0000128820029
 51
62.99997543406626
1001
DBPROPERTIES
1002
{
1000
PbHidd
1002
}
  0
ARC
  5
1CA
330
1F
100
AcDbEntity
  8
HIDDEN
100
AcDbCircle
 10
-241.6090404988387
 20
81.25047598889563
 30
0.0
 40
299.1
100
AcDbArc
 50
323.6024549938579
 51
324.3975485261609
1001
DBPROPERTIES
1002
{
1000
PbHidd
1002
}
  0
ARC
  5
1CB
330
1F
100
AcDbEntity
  8
HIDDEN
100
AcDbCircle
 10
-30.11340224594241
 20
-130.2451622640008
 30
0.0
 40
44.86499999999998
100
AcDbArc
 50
225.0000280859525
 51
44.99999063801582
1001
DBPROPERTIES
1002
{
1000
PbHidd
1002
}
  0
ARC
  5
1CC
330
1F
100
AcDbEntity
  8
HIDDEN
100
AcDbCircle
 10
-241.6090404988387
 20
81.25047598889563
 30
0.0
 40
299.1
100
AcDbArc
 50
305.6024701978074
 51
306.3975637301104
1001
DBPROPERTIES
1002
{
1000
PbHidd
1002
}
  0
ARC
  5
1CD
330
1F
100
AcDbEntity
  8
HIDDEN
100
AcDbCircle
 10
-105.8204820267403
 20
-185.2495753958452
 30
0.0
 40
44.86499999999999
100
AcDbArc
 50
206.9999859941226
 51
27.0000058419654
1001
DBPROPERTIES
1002
{
1000
PbHidd
1002
}
  0
ARC
  5
1CE
330
1F
100
AcDbEntity
  8
HIDDEN
100
AcDbCircle
 10
-241.6090404988387
 20
81.25047598889563
 30
0.0
 40
299.1
100
AcDbArc
 50
287.6024281059775
 51
288.39757893406
1001
DBPROPERTIES
1002
{
1000
PbHidd
1002
}
  0
ARC
  5
1CF
330
1F
100
AcDbEntity
  8
HIDDEN
100
AcDbCircle
 10
-194.8194920053056
 20
-214.1671066831101
 30
0.0
 40
44.86499999999998
100
AcDbArc
 50
189.0000011980722
 51
9.000021045914972
1001
DBPROPERTIES
1002
{
1000
PbHidd
1002
}
  0
ARC
  5
1D0
330
1F
100
AcDbEntity
  8
HIDDEN
100
AcDbCircle
 10
-241.6090404988387
 20
81.25047598889563
 30
0.0
 40
299.1
100
AcDbArc
 50
269.6024433099271
 51
270.3975368422301
1001
DBPROPERTIES
1002
{
1000
PbHidd
1002
}
  0
ARC
  5
1D1
330
1F
100
AcDbEntity
  8
HIDDEN
100
AcDbCircle
 10
-288.3985889923719
 20
-214.1671066831101
 30
0.0
 40
44.86499999999998
100
AcDbArc
 50
170.9999988019279
 51
350.9999789540851
1001
DBPROPERTIES
1002
{
1000
PbHidd
1002
}
  0
ARC
  5
1D2
330
1F
100
AcDbEntity
  8
HIDDEN
100
AcDbCircle
 10
-241.6090404988387
 20
81.25047598889563
 30
0.0
 40
299.1
100
AcDbArc
 50
251.6024585138766
 51
252.3975520461797
1001
DBPROPERTIES
1002
{
1000
PbHidd
1002
}
  0
ARC
  5
1D3
330
1F
100
AcDbEntity
  8
HIDDEN
100
AcDbCircle
 10
-377.397598970937
 20
-185.2495753958452
 30
0.0
 40
44.86499999999999
100
AcDbArc
 50
153.0000140058774
 51
332.9999941580346
1001
DBPROPERTIES
1002
{
1000
PbHidd
1002
}
  0
ARC
  5
1D4
330
1F
100
AcDbEntity
  8
HIDDEN
100
AcDbCircle
 10
-241.6090404988387
 20
81.25047598889563
 30
0.0
 40
299.1
100
AcDbArc
 50
233.6024164220467
 51
234.3975672501292
1001
DBPROPERTIES
1002
{
1000
PbHidd
1002
}
  0
ARC
  5
1D5
330
1F
100
AcDbEntity
  8
HIDDEN
100
AcDbCircle
 10
-453.104678751735
 20
-130.2451622640008
 30
0.0
 40
44.86499999999998
100
AcDbArc
 50
134.9999719140475
 51
315.0000093619842
1001
DBPROPERTIES
1002
{
1000
PbHidd
1002
}
  0
ARC
  5
1D6
330
1F
100
AcDbEntity
  8
HIDDEN
100
AcDbCircle
 10
-241.6090404988387
 20
81.25047598889563
 30
0.0
 40
299.1
100
AcDbArc
 50
215.6024316259962
 51
216.3975824540788
1001
DBPROPERTIES
1002
{
1000
PbHidd
1002
}
  0
ARC
  5
1D7
330
1F
100
AcDbEntity
  8
HIDDEN
100
AcDbCircle
 10
-508.1090918835794
 20
-54.53808248320269
 30
0.0
 40
44.86499999999999
100
AcDbArc
 50
116.9999871179971
 51
297.0000245659338
1001
DBPROPERTIES
1002
{
1000
PbHidd
1002
}
  0
ARC
  5
1D8
330
1F
100
AcDbEntity
  8
HIDDEN
100
AcDbCircle
 10
-241.6090404988387
 20
81.25047598889563
 30
0.0
 40
299.1
100
AcDbArc
 50
197.6024468299458
 51
198.3975403622489
1001
DBPROPERTIES
1002
{
1000
PbHidd
1002
}
  0
ARC
  5
1D9
330
1F
100
AcDbEntity
  8
HIDDEN
100
AcDbCircle
 10
-537.0266231708445
 20
34.46092749536268
 30
0.0
 40
44.86499999999998
100
AcDbArc
 50
99.00000232194662
 51
278.9999824741038
1001
DBPROPERTIES
1002
{
1000
PbHidd
1002
}
  0
ARC
  5
1DA
330
1F
100
AcDbEntity
  8
HIDDEN
100
AcDbCircle
 10
-241.6090404988387
 20
81.25047598889563
 30
0.0
 40
299.1
100
AcDbArc
 50
179.6024444338016
 51
180.3975555661984
1001
DBPROPERTIES
1002
{
1000
PbHidd
1002
}
  0
ARC
  5
1DB
330
1F
100
AcDbEntity
  8
HIDDEN
100
AcDbCircle
 10
-537.0266231708442
 20
128.0400244824286
 30
0.0
 40
44.86499999999999
100
AcDbArc
 50
81.0000175258962
 51
260.9999976780534
1001
DBPROPERTIES
1002
{
1000
PbHidd
1002
}
  0
ARC
  5
1DC
330
1F
100
AcDbEntity
  8
HIDDEN
100
AcDbCircle
 10
-241.6090404988387
 20
81.25047598889563
 30
0.0
 40
299.1
100
AcDbArc
 50
161.6024596377511
 51
162.3975531700542
1001
DBPROPERTIES
1002
{
1000
PbHidd
1002
}
  0
ARC
  5
1DD
330
1F
100
AcDbEntity
  8
HIDDEN
100
AcDbCircle
 10
-508.1090918835794
 20
217.039034460994
 30
0.0
 40
44.86499999999999
100
AcDbArc
 50
62.99997543406626
 51
243.0000128820029
1001
DBPROPERTIES
1002
{
1000
PbHidd
1002
}
  0
ARC
  5
1DE
330
1F
100
AcDbEntity
  8
HIDDEN
100
AcDbCircle
 10
-241.6090404988387
 20
81.25047598889563
 30
0.0
 40
299.1
100
AcDbArc
 50
143.6024175459212
 51
144.3975683740037
1001
DBPROPERTIES
1002
{
1000
PbHidd
1002
}
  0
ARC
  5
1DF
330
1F
100
AcDbEntity
  8
HIDDEN
100
AcDbCircle
 10
-453.104678751735
 20
292.746114241792
 30
0.0
 40
44.86499999999998
100
AcDbArc
 50
44.99999063801582
 51
225.0000280859525
1001
DBPROPERTIES
1002
{
1000
PbHidd
1002
}
  0
ARC
  5
1E0
330
1F
100
AcDbEntity
  8
HIDDEN
100
AcDbCircle
 10
-241.6090404988387
 20
81.25047598889563
 30
0.0
 40
299.1
100
AcDbArc
 50
125.6024327498707
 51
126.3975835779533
1001
DBPROPERTIES
1002
{
1000
PbHidd
1002
}
  0
ARC
  5
1E1
330
1F
100
AcDbEntity
  8
HIDDEN
100
AcDbCircle
 10
-377.3975989709372
 20
347.7505273736365
 30
0.0
 40
44.86499999999999
100
AcDbArc
 50
27.0000058419654
 51
206.9999859941226
1001
DBPROPERTIES
1002
{
1000
PbHidd
1002
}
  0
ARC
  5
1E2
330
1F
100
AcDbEntity
  8
HIDDEN
100
AcDbCircle
 10
-241.6090404988387
 20
81.25047598889563
 30
0.0
 40
299.1
100
AcDbArc
 50
107.6024479538203
 51
108.3975414861234
1001
DBPROPERTIES
1002
{
1000
PbHidd
1002
}
  0
ARC
  5
1E3
330
1F
100
AcDbEntity
  8
HIDDEN
100
AcDbCircle
 10
-288.3985889923717
 20
376.6680586609014
 30
0.0
 40
44.86499999999999
100
AcDbArc
 50
9.000021045914972
 51
189.0000011980722
1001
DBPROPERTIES
1002
{
1000
PbHidd
1002
}
  0
ARC
  5
1E4
330
1F
100
AcDbEntity
  8
HIDDEN
100
AcDbCircle
 10
-241.6090404988387
 20
81.25047598889563
 30
0.0
 40
299.1
100
AcDbArc
 50
89.6024631577699
 51
90.39755669007295
1001
DBPROPERTIES
1002
{
1000
PbHidd
1002
}
  0
ARC
  5
1E5
330
1F
100
AcDbEntity
  8
HIDDEN
100
AcDbCircle
 10
-194.8194920053056
 20
376.6680586609014
 30
0.0
 40
44.86499999999998
100
AcDbArc
 50
350.9999789540851
 51
170.9999988019279
1001
DBPROPERTIES
1002
{
1000
PbHidd
1002
}
  0
ARC
  5
1E6
330
1F
100
AcDbEntity
  8
HIDDEN
100
AcDbCircle
 10
-241.6090404988387
 20
81.25047598889563
 30
0.0
 40
299.1
100
AcDbArc
 50
71.60242106593995
 51
72.39757189402252
1001
DBPROPERTIES
1002
{
1000
PbHidd
1002
}
  0
ARC
  5
1E7
330
1F
100
AcDbEntity
  8
HIDDEN
100
AcDbCircle
 10
-105.8204820267402
 20
347.7505273736365
 30
0.0
 40
44.86499999999999
100
AcDbArc
 50
332.9999941580346
 51
153.0000140058774
1001
DBPROPERTIES
1002
{
1000
PbHidd
1002
}
  0
ARC
  5
1E8
330
1F
100
AcDbEntity
  8
HIDDEN
100
AcDbCircle
 10
-241.6090404988387
 20
81.25047598889563
 30
0.0
 40
299.1
100
AcDbArc
 50
53.60243626988952
 51
54.39752980219256
1001
DBPROPERTIES
1002
{
1000
PbHidd
1002
}
  0
LINE
  5
1E9
330
1F
100
AcDbEntity
  8
THICK
100
AcDbLine
 10
802.0
 20
-506.4932844671126
 30
0.0
 11
802.0
 21
-647.5
 31
0.0
1001
DBPROPERTIES
1002
{
1000
PbThick
1002
}
  0
LINE
  5
1EA
330
1F
100
AcDbEntity
  8
HIDDEN
100
AcDbLine
 10
802.0
 20
-647.5
 30
0.0
 11
802.0
 21
-647.5
 31
0.0
1001
DBPROPERTIES
1002
{
1000
PbHidd
1002
}
  0
ARC
  5
1EB
330
1F
100
AcDbEntity
  8
HIDDEN
100
AcDbCircle
 10
651.625
 20
-373.875
 30
0.0
 40
200.5
100
AcDbArc
 50
221.4096453585447
 51
318.590392089392
1001
DBPROPERTIES
1002
{
1000
PbHidd
1002
}
  0
LINE
  5
1EC
330
1F
100
AcDbEntity
  8
HIDDEN
100
AcDbLine
 10
501.2500000000001
 20
-647.5
 30
0.0
 11
501.25
 21
-647.5
 31
0.0
1001
DBPROPERTIES
1002
{
1000
PbHidd
1002
}
  0
LINE
  5
1ED
330
1F
100
AcDbEntity
  8
THICK
100
AcDbLine
 10
501.2500000000001
 20
-647.5
 30
0.0
 11
501.2500000000001
 21
-506.4932844671126
 31
0.0
1001
DBPROPERTIES
1002
{
1000
PbThick
1002
}
  0
ARC
  5
1EE
330
1F
100
AcDbEntity
  8
THICK
100
AcDbCircle
 10
651.625
 20
-373.875
 30
0.0
 40
200.5
100
AcDbArc
 50
221.4096453585447
 51
318.590392089392
1001
DBPROPERTIES
1002
{
1000
PbThick
1002
}
  0
ARC
  5
1EF
330
1F
100
AcDbEntity
  8
THICK
100
AcDbCircle
 10
651.625
 20
-373.875
 30
0.0
 40
180.45
100
AcDbArc
 50
180.0000198478428
 51
0.0
1001
DBPROPERTIES
1002
{
1000
PbThick
1002
}
  0
ARC
  5
1F0
330
1F
100
AcDbEntity
  8
HIDDEN
100
AcDbCircle
 10
651.625
 20
-373.875
 30
0.0
 40
180.45
100
AcDbArc
 50
179.9999801521572
 51
0.0
1001
DBPROPERTIES
1002
{
1000
PbHidd
1002
}
  0
LINE
  5
1F1
330
1F
100
AcDbEntity
  8
HIDDEN
100
AcDbLine
 10
305.7499999999999
 20
750.75
 30
0.0
 11
300.7499999999999
 21
750.75
 31
0.0
1001
DBPROPERTIES
1002
{
1000
PbHidd
1002
}
  0
LINE
  5
1F2
330
1F
100
AcDbEntity
  8
HIDDEN
100
AcDbLine
 10
30.06249999999995
 20
750.75
 30
0.0
 11
25.06249999999995
 21
750.75
 31
0.0
1001
DBPROPERTIES
1002
{
1000
PbHidd
1002
}
  0
LINE
  5
1F3
330
1F
100
AcDbEntity
  8
HIDDEN
100
AcDbLine
 10
-245.6250000000001
 20
750.75
 30
0.0
 11
-250.6250000000001
 21
750.75
 31
0.0
1001
DBPROPERTIES
1002
{
1000
PbHidd
1002
}
  0
LINE
  5
1F4
330
1F
100
AcDbEntity
  8
HIDDEN
100
AcDbLine
 10
-521.3125
 20
750.75
 30
0.0
 11
-526.3125
 21
750.75
 31
0.0
1001
DBPROPERTIES
1002
{
1000
PbHidd
1002
}
  0
LINE
  5
1F5
330
1F
100
AcDbEntity
  8
HIDDEN
100
AcDbLine
 10
-797.0
 20
750.75
 30
0.0
 11
-802.0
 21
750.75
 31
0.0
1001
DBPROPERTIES
1002
{
1000
PbHidd
1002
}
  0
LINE
  5
1F6
330
1F
100
AcDbEntity
  8
HIDDEN
100
AcDbLine
 10
305.7500000000001
 20
750.75
 30
0.0
 11
300.7500000000001
 21
750.75
 31
0.0
1001
DBPROPERTIES
1002
{
1000
PbHidd
1002
}
  0
LINE
  5
1F7
330
1F
100
AcDbEntity
  8
HIDDEN
100
AcDbLine
 10
30.06250000000005
 20
750.75
 30
0.0
 11
25.06250000000005
 21
750.75
 31
0.0
1001
DBPROPERTIES
1002
{
1000
PbHidd
1002
}
  0
LINE
  5
1F8
330
1F
100
AcDbEntity
  8
HIDDEN
100
AcDbLine
 10
-245.6249999999999
 20
750.75
 30
0.0
 11
-250.6249999999999
 21
750.75
 31
0.0
1001
DBPROPERTIES
1002
{
1000
PbHidd
1002
}
  0
LINE
  5
1F9
330
1F
100
AcDbEntity
  8
HIDDEN
100
AcDbLine
 10
-521.3125
 20
750.75
 30
0.0
 11
-526.3125
 21
750.75
 31
0.0
1001
DBPROPERTIES
1002
{
1000
PbHidd
1002
}
  0
LINE
  5
1FA
330
1F
100
AcDbEntity
  8
HIDDEN
100
AcDbLine
 10
-797.0
 20
750.75
 30
0.0
 11
-802.0
 21
750.75
 31
0.0
1001
DBPROPERTIES
1002
{
1000
PbHidd
1002
}
  0
LINE
  5
1FB
330
1F
100
AcDbEntity
  8
HIDDEN
100
AcDbLine
 10
355.8749999999999
 20
750.75
 30
0.0
 11
350.8749999999999
 21
750.75
 31
0.0
1001
DBPROPERTIES
1002
{
1000
PbHidd
1002
}
  0
LINE
  5
1FC
330
1F
100
AcDbEntity
  8
HIDDEN
100
AcDbLine
 10
-847.125
 20
750.75
 30
0.0
 11
-852.125
 21
750.75
 31
0.0
1001
DBPROPERTIES
1002
{
1000
PbHidd
1002
}
  0
LINE
  5
1FD
330
1F
100
AcDbEntity
  8
HIDDEN
100
AcDbLine
 10
355.875
 20
750.75
 30
0.0
 11
350.875
 21
750.75
 31
0.0
1001
DBPROPERTIES
1002
{
1000
PbHidd
1002
}
  0
LINE
  5
1FE
330
1F
100
AcDbEntity
  8
HIDDEN
100
AcDbLine
 10
-847.125
 20
750.75
 30
0.0
 11
-852.125
 21
750.75
 31
0.0
1001
DBPROPERTIES
1002
{
1000
PbHidd
1002
}
  0
LINE
  5
1FF
330
1F
100
AcDbEntity
  8
HIDDEN
100
AcDbLine
 10
355.875
 20
750.75
 30
0.0
 11
350.875
 21
750.75
 31
0.0
1001
DBPROPERTIES
1002
{
1000
PbHidd
1002
}
  0
LINE
  5
200
330
1F
100
AcDbEntity
  8
HIDDEN
100
AcDbLine
 10
-847.125
 20
750.75
 30
0.0
 11
-852.125
 21
750.75
 31
0.0
1001
DBPROPERTIES
1002
{
1000
PbHidd
1002
}
  0
LINE
  5
201
330
1F
100
AcDbEntity
  8
HIDDEN
100
AcDbLine
 10
355.875
 20
750.75
 30
0.0
 11
350.875
 21
750.75
 31
0.0
1001
DBPROPERTIES
1002
{
1000
PbHidd
1002
}
  0
LINE
  5
202
330
1F
100
AcDbEntity
  8
HIDDEN
100
AcDbLine
 10
-847.125
 20
750.75
 30
0.0
 11
-852.125
 21
750.75
 31
0.0
1001
DBPROPERTIES
1002
{
1000
PbHidd
1002
}
  0
LINE
  5
203
330
1F
100
AcDbEntity
  8
HIDDEN
100
AcDbLine
 10
355.8750000000001
 20
750.75
 30
0.0
 11
350.8750000000001
 21
750.75
 31
0.0
1001
DBPROPERTIES
1002
{
1000
PbHidd
1002
}
  0
LINE
  5
204
330
1F
100
AcDbEntity
  8
HIDDEN
100
AcDbLine
 10
-847.125
 20
750.75
 30
0.0
 11
-852.125
 21
750.75
 31
0.0
1001
DBPROPERTIES
1002
{
1000
PbHidd
1002
}
  0
LINE
  5
205
330
1F
100
AcDbEntity
  8
HIDDEN
100
AcDbLine
 10
1042.5
 20
596.0
 30
0.0
 11
1042.5
 21
596.0
 31
0.0
1001
DBPROPERTIES
1002
{
1000
PbHidd
1002
}
  0
LINE
  5
206
330
1F
100
AcDbEntity
  8
HIDDEN
100
AcDbLine
 10
902.25
 20
596.0
 30
0.0
 11
1042.5
 21
596.0
 31
0.0
1001
DBPROPERTIES
1002
{
1000
PbHidd
1002
}
  0
LINE
  5
207
330
1F
100
AcDbEntity
  8
HIDDEN
100
AcDbLine
 10
902.25
 20
596.0
 30
0.0
 11
902.25
 21
596.0
 31
0.0
1001
DBPROPERTIES
1002
{
1000
PbHidd
1002
}
  0
LINE
  5
208
330
1F
100
AcDbEntity
  8
HIDDEN
100
AcDbLine
 10
902.25
 20
-596.0
 30
0.0
 11
1042.5
 21
-596.0
 31
0.0
1001
DBPROPERTIES
1002
{
1000
PbHidd
1002
}
  0
LINE
  5
209
330
1F
100
AcDbEntity
  8
HIDDEN
100
AcDbLine
 10
1042.5
 20
-596.0
 30
0.0
 11
1042.5
 21
-596.0
 31
0.0
1001
DBPROPERTIES
1002
{
1000
PbHidd
1002
}
  0
LINE
  5
20A
330
1F
100
AcDbEntity
  8
HIDDEN
100
AcDbLine
 10
902.25
 20
-596.0
 30
0.0
 11
902.25
 21
-596.0
 31
0.0
1001
DBPROPERTIES
1002
{
1000
PbHidd
1002
}
  0
LINE
  5
20B
330
1F
100
AcDbEntity
  8
THICK
100
AcDbLine
 10
1002.5
 20
600.0
 30
0.0
 11
1042.5
 21
600.0
 31
0.0
1001
DBPROPERTIES
1002
{
1000
PbThick
1002
}
  0
LINE
  5
20C
330
1F
100
AcDbEntity
  8
HIDDEN
100
AcDbLine
 10
1002.5
 20
-600.0
 30
0.0
 11
1042.5
 21
-600.0
 31
0.0
1001
DBPROPERTIES
1002
{
1000
PbHidd
1002
}
  0
LINE
  5
20D
330
1F
100
AcDbEntity
  8
THICK
100
AcDbLine
 10
1042.5
 20
600.0
 30
0.0
 11
1042.5
 21
-546.25
 31
0.0
1001
DBPROPERTIES
1002
{
1000
PbThick
1002
}
  0
LINE
  5
20E
330
1F
100
AcDbEntity
  8
HIDDEN
100
AcDbLine
 10
1042.5
 20
-546.25
 30
0.0
 11
1042.5
 21
-600.0
 31
0.0
1001
DBPROPERTIES
1002
{
1000
PbHidd
1002
}
  0
LINE
  5
20F
330
1F
100
AcDbEntity
  8
HIDDEN
100
AcDbLine
 10
1002.5
 20
-600.0
 30
0.0
 11
1002.5
 21
-600.0
 31
0.0
1001
DBPROPERTIES
1002
{
1000
PbHidd
1002
}
  0
LINE
  5
210
330
1F
100
AcDbEntity
  8
HIDDEN
100
AcDbLine
 10
1042.5
 20
-600.0
 30
0.0
 11
1042.5
 21
-600.0
 31
0.0
1001
DBPROPERTIES
1002
{
1000
PbHidd
1002
}
  0
LINE
  5
211
330
1F
100
AcDbEntity
  8
HIDDEN
100
AcDbLine
 10
1042.5
 20
600.0
 30
0.0
 11
1042.5
 21
600.0
 31
0.0
1001
DBPROPERTIES
1002
{
1000
PbHidd
1002
}
  0
LINE
  5
212
330
1F
100
AcDbEntity
  8
HIDDEN
100
AcDbLine
 10
1002.5
 20
600.0
 30
0.0
 11
1002.5
 21
600.0
 31
0.0
1001
DBPROPERTIES
1002
{
1000
PbHidd
1002
}
  0
LINE
  5
213
330
1F
100
AcDbEntity
  8
HIDDEN
100
AcDbLine
 10
-1032.5
 20
678.25
 30
0.0
 11
-901.25
 21
678.25
 31
0.0
1001
DBPROPERTIES
1002
{
1000
PbHidd
1002
}
  0
LINE
  5
214
330
1F
100
AcDbEntity
  8
HIDDEN
100
AcDbLine
 10
-1032.5
 20
678.25
 30
0.0
 11
-1032.5
 21
678.25
 31
0.0
1001
DBPROPERTIES
1002
{
1000
PbHidd
1002
}
  0
LINE
  5
215
330
1F
100
AcDbEntity
  8
HIDDEN
100
AcDbLine
 10
-901.25
 20
678.25
 30
0.0
 11
-901.25
 21
678.25
 31
0.0
1001
DBPROPERTIES
1002
{
1000
PbHidd
1002
}
  0
LINE
  5
216
330
1F
100
AcDbEntity
  8
HIDDEN
100
AcDbLine
 10
-901.25
 20
647.5
 30
0.0
 11
-901.25
 21
647.5
 31
0.0
1001
DBPROPERTIES
1002
{
1000
PbHidd
1002
}
  0
LINE
  5
217
330
1F
100
AcDbEntity
  8
HIDDEN
100
AcDbLine
 10
-901.25
 20
678.25
 30
0.0
 11
-901.25
 21
647.5
 31
0.0
1001
DBPROPERTIES
1002
{
1000
PbHidd
1002
}
  0
LINE
  5
218
330
1F
100
AcDbEntity
  8
HIDDEN
100
AcDbLine
 10
-1032.5
 20
-266.25
 30
0.0
 11
-902.25
 21
-266.25
 31
0.0
1001
DBPROPERTIES
1002
{
1000
PbHidd
1002
}
  0
LINE
  5
219
330
1F
100
AcDbEntity
  8
HIDDEN
100
AcDbLine
 10
-1032.5
 20
-266.25
 30
0.0
 11
-1032.5
 21
-266.25
 31
0.0
1001
DBPROPERTIES
1002
{
1000
PbHidd
1002
}
  0
LINE
  5
21A
330
1F
100
AcDbEntity
  8
HIDDEN
100
AcDbLine
 10
-902.25
 20
-266.25
 30
0.0
 11
-902.25
 21
-266.25
 31
0.0
1001
DBPROPERTIES
1002
{
1000
PbHidd
1002
}
  0
LINE
  5
21B
330
1F
100
AcDbEntity
  8
HIDDEN
100
AcDbLine
 10
-902.25
 20
647.5
 30
0.0
 11
-902.25
 21
647.5
 31
0.0
1001
DBPROPERTIES
1002
{
1000
PbHidd
1002
}
  0
LINE
  5
21C
330
1F
100
AcDbEntity
  8
HIDDEN
100
AcDbLine
 10
-902.25
 20
647.5
 30
0.0
 11
-902.25
 21
647.5
 31
0.0
1001
DBPROPERTIES
1002
{
1000
PbHidd
1002
}
  0
LINE
  5
21D
330
1F
100
AcDbEntity
  8
HIDDEN
100
AcDbLine
 10
400.9999999999999
 20
647.5
 30
0.0
 11
401.0000000000001
 21
647.5
 31
0.0
1001
DBPROPERTIES
1002
{
1000
PbHidd
1002
}
  0
LINE
  5
21E
330
1F
100
AcDbEntity
  8
HIDDEN
100
AcDbLine
 10
-902.25
 20
647.5
 30
0.0
 11
401.0000000000001
 21
647.5
 31
0.0
1001
DBPROPERTIES
1002
{
1000
PbHidd
1002
}
  0
LINE
  5
21F
330
1F
100
AcDbEntity
  8
HIDDEN
100
AcDbLine
 10
-902.25
 20
-647.5
 30
0.0
 11
-902.25
 21
-647.5
 31
0.0
1001
DBPROPERTIES
1002
{
1000
PbHidd
1002
}
  0
LINE
  5
220
330
1F
100
AcDbEntity
  8
HIDDEN
100
AcDbLine
 10
401.0000000000001
 20
-647.5
 30
0.0
 11
400.9999999999999
 21
-647.5
 31
0.0
1001
DBPROPERTIES
1002
{
1000
PbHidd
1002
}
  0
LINE
  5
221
330
1F
100
AcDbEntity
  8
HIDDEN
100
AcDbLine
 10
401.0000000000001
 20
647.5
 30
0.0
 11
401.0000000000001
 21
-647.5
 31
0.0
1001
DBPROPERTIES
1002
{
1000
PbHidd
1002
}
  0
LINE
  5
222
330
1F
100
AcDbEntity
  8
HIDDEN
100
AcDbLine
 10
-902.25
 20
-647.5
 30
0.0
 11
401.0000000000001
 21
-647.5
 31
0.0
1001
DBPROPERTIES
1002
{
1000
PbHidd
1002
}
  0
LINE
  5
223
330
1F
100
AcDbEntity
  8
HIDDEN
100
AcDbLine
 10
-1002.5
 20
-270.25
 30
0.0
 11
-1002.5
 21
-270.25
 31
0.0
1001
DBPROPERTIES
1002
{
1000
PbHidd
1002
}
  0
LINE
  5
224
330
1F
100
AcDbEntity
  8
THICK
100
AcDbLine
 10
-1032.5
 20
-270.25
 30
0.0
 11
-1002.5
 21
-270.25
 31
0.0
1001
DBPROPERTIES
1002
{
1000
PbThick
1002
}
  0
LINE
  5
225
330
1F
100
AcDbEntity
  8
HIDDEN
100
AcDbLine
 10
-1032.5
 20
-270.25
 30
0.0
 11
-1032.5
 21
-270.25
 31
0.0
1001
DBPROPERTIES
1002
{
1000
PbHidd
1002
}
  0
LINE
  5
226
330
1F
100
AcDbEntity
  8
THICK
100
AcDbLine
 10
-1032.5
 20
-270.25
 30
0.0
 11
-1032.5
 21
682.25
 31
0.0
1001
DBPROPERTIES
1002
{
1000
PbThick
1002
}
  0
LINE
  5
227
330
1F
100
AcDbEntity
  8
HIDDEN
100
AcDbLine
 10
-1032.5
 20
682.25
 30
0.0
 11
-1032.5
 21
682.25
 31
0.0
1001
DBPROPERTIES
1002
{
1000
PbHidd
1002
}
  0
LINE
  5
228
330
1F
100
AcDbEntity
  8
THICK
100
AcDbLine
 10
-1032.5
 20
682.25
 30
0.0
 11
-1002.5
 21
682.25
 31
0.0
1001
DBPROPERTIES
1002
{
1000
PbThick
1002
}
  0
LINE
  5
229
330
1F
100
AcDbEntity
  8
HIDDEN
100
AcDbLine
 10
-1002.5
 20
682.25
 30
0.0
 11
-1002.5
 21
682.25
 31
0.0
1001
DBPROPERTIES
1002
{
1000
PbHidd
1002
}
  0
LINE
  5
22A
330
1F
100
AcDbEntity
  8
THICK
100
AcDbLine
 10
405.0000000000001
 20
597.375
 30
0.0
 11
405.0000000000001
 21
-186.4853429485467
 31
0.0
1001
DBPROPERTIES
1002
{
1000
PbThick
1002
}
  0
LINE
  5
22B
330
1F
100
AcDbEntity
  8
HIDDEN
100
AcDbLine
 10
405.0000000000001
 20
-186.4853429485467
 30
0.0
 11
405.0000000000001
 21
-193.2193003743527
 31
0.0
1001
DBPROPERTIES
1002
{
1000
PbHidd
1002
}
  0
LINE
  5
22C
330
1F
100
AcDbEntity
  8
THICK
100
AcDbLine
 10
405.0000000000001
 20
-193.2193003743527
 30
0.0
 11
405.0000000000001
 21
-303.2072716625202
 31
0.0
1001
DBPROPERTIES
1002
{
1000
PbThick
1002
}
  0
LINE
  5
22D
330
1F
100
AcDbEntity
  8
HIDDEN
100
AcDbLine
 10
405.0000000000001
 20
-303.2072716625202
 30
0.0
 11
405.0000000000001
 21
-309.9412290883263
 31
0.0
1001
DBPROPERTIES
1002
{
1000
PbHidd
1002
}
  0
LINE
  5
22E
330
1F
100
AcDbEntity
  8
THICK
100
AcDbLine
 10
405.0000000000001
 20
-309.9412290883263
 30
0.0
 11
405.0000000000001
 21
-597.375
 31
0.0
1001
DBPROPERTIES
1002
{
1000
PbThick
1002
}
  0
LINE
  5
22F
330
1F
100
AcDbEntity
  8
THICK
100
AcDbLine
 10
405.0000000000001
 20
-597.375
 30
0.0
 11
-852.125
 21
-597.375
 31
0.0
1001
DBPROPERTIES
1002
{
1000
PbThick
1002
}
  0
LINE
  5
230
330
1F
100
AcDbEntity
  8
HIDDEN
100
AcDbLine
 10
405.0
 20
-597.375
 30
0.0
 11
405.0
 21
-597.375
 31
0.0
1001
DBPROPERTIES
1002
{
1000
PbHidd
1002
}
  0
LINE
  5
231
330
1F
100
AcDbEntity
  8
HIDDEN
100
AcDbLine
 10
-852.125
 20
-597.375
 30
0.0
 11
-852.125
 21
-597.375
 31
0.0
1001
DBPROPERTIES
1002
{
1000
PbHidd
1002
}
  0
LINE
  5
232
330
1F
100
AcDbEntity
  8
HIDDEN
100
AcDbLine
 10
-852.125
 20
597.375
 30
0.0
 11
-852.125
 21
597.375
 31
0.0
1001
DBPROPERTIES
1002
{
1000
PbHidd
1002
}
  0
LINE
  5
233
330
1F
100
AcDbEntity
  8
THICK
100
AcDbLine
 10
-852.125
 20
-597.375
 30
0.0
 11
-852.125
 21
597.375
 31
0.0
1001
DBPROPERTIES
1002
{
1000
PbThick
1002
}
  0
LINE
  5
234
330
1F
100
AcDbEntity
  8
HIDDEN
100
AcDbLine
 10
405.0
 20
597.375
 30
0.0
 11
405.0
 21
597.375
 31
0.0
1001
DBPROPERTIES
1002
{
1000
PbHidd
1002
}
  0
LINE
  5
235
330
1F
100
AcDbEntity
  8
THICK
100
AcDbLine
 10
-852.125
 20
597.375
 30
0.0
 11
405.0000000000001
 21
597.375
 31
0.0
1001
DBPROPERTIES
1002
{
1000
PbThick
1002
}
  0
LINE
  5
236
330
1F
100
AcDbEntity
  8
THICK
100
AcDbLine
 10
405.0000000000001
 20
597.375
 30
0.0
 11
405.0000000000001
 21
647.5
 31
0.0
1001
DBPROPERTIES
1002
{
1000
PbThick
1002
}
  0
LINE
  5
237
330
1F
100
AcDbEntity
  8
THICK
100
AcDbLine
 10
405.0000000000001
 20
-647.5
 30
0.0
 11
405.0000000000001
 21
-597.375
 31
0.0
1001
DBPROPERTIES
1002
{
1000
PbThick
1002
}
  0
LINE
  5
238
330
1F
100
AcDbEntity
  8
HIDDEN
100
AcDbLine
 10
404.9999999999999
 20
-647.5
 30
0.0
 11
405.0000000000001
 21
-647.5
 31
0.0
1001
DBPROPERTIES
1002
{
1000
PbHidd
1002
}
  0
LINE
  5
239
330
1F
100
AcDbEntity
  8
HIDDEN
100
AcDbLine
 10
-902.25
 20
-647.5
 30
0.0
 11
-902.25
 21
-647.5
 31
0.0
1001
DBPROPERTIES
1002
{
1000
PbHidd
1002
}
  0
LINE
  5
23A
330
1F
100
AcDbEntity
  8
HIDDEN
100
AcDbLine
 10
-1002.5
 20
-742.75
 30
0.0
 11
-998.4949874371073
 21
-742.7500000000001
 31
0.0
1001
DBPROPERTIES
1002
{
1000
PbHidd
1002
}
  0
ARC
  5
23B
330
1F
100
AcDbEntity
  8
HIDDEN
100
AcDbCircle
 10
-997.4999999999999
 20
-742.7499999999999
 30
0.0
 40
5.0
100
AcDbArc
 50
180.0000198478428
 51
258.521668735215
1001
DBPROPERTIES
1002
{
1000
PbHidd
1002
}
  0
LINE
  5
23C
330
1F
100
AcDbEntity
  8
HIDDEN
100
AcDbLine
 10
-1002.5
 20
-742.7499999999999
 30
0.0
 11
-1002.5
 21
-742.7499999999999
 31
0.0
1001
DBPROPERTIES
1002
{
1000
PbHidd
1002
}
  0
LINE
  5
23D
330
1F
100
AcDbEntity
  8
HIDDEN
100
AcDbLine
 10
998.4949874371063
 20
-742.7499999999999
 30
0.0
 11
1002.5
 21
-742.75
 31
0.0
1001
DBPROPERTIES
1002
{
1000
PbHidd
1002
}
  0
LINE
  5
23E
330
1F
100
AcDbEntity
  8
HIDDEN
100
AcDbLine
 10
-1002.5
 20
742.75
 30
0.0
 11
-997.5000000000001
 21
742.75
 31
0.0
1001
DBPROPERTIES
1002
{
1000
PbHidd
1002
}
  0
LINE
  5
23F
330
1F
100
AcDbEntity
  8
HIDDEN
100
AcDbLine
 10
-997.5
 20
747.75
 30
0.0
 11
-997.5000000000001
 21
742.75
 31
0.0
1001
DBPROPERTIES
1002
{
1000
PbHidd
1002
}
  0
LINE
  5
240
330
1F
100
AcDbEntity
  8
HIDDEN
100
AcDbLine
 10
997.5
 20
747.75
 30
0.0
 11
997.5
 21
742.75
 31
0.0
1001
DBPROPERTIES
1002
{
1000
PbHidd
1002
}
  0
LINE
  5
241
330
1F
100
AcDbEntity
  8
THICK
100
AcDbLine
 10
1002.5
 20
742.75
 30
0.0
 11
997.5
 21
742.75
 31
0.0
1001
DBPROPERTIES
1002
{
1000
PbThick
1002
}
  0
ARC
  5
242
330
1F
100
AcDbEntity
  8
THICK
100
AcDbCircle
 10
997.5
 20
742.75
 30
0.0
 40
5.0
100
AcDbArc
 50
0.0
 51
89.99998127603165
1001
DBPROPERTIES
1002
{
1000
PbThick
1002
}
  0
LINE
  5
243
330
1F
100
AcDbEntity
  8
THICK
100
AcDbLine
 10
997.5000000000001
 20
742.75
 30
0.0
 11
997.5000000000001
 21
747.75
 31
0.0
1001
DBPROPERTIES
1002
{
1000
PbThick
1002
}
  0
LINE
  5
244
330
1F
100
AcDbEntity
  8
THICK
100
AcDbLine
 10
-997.4999999999999
 20
747.75
 30
0.0
 11
997.5
 21
747.75
 31
0.0
1001
DBPROPERTIES
1002
{
1000
PbThick
1002
}
  0
LINE
  5
245
330
1F
100
AcDbEntity
  8
THICK
100
AcDbLine
 10
-997.4999999999999
 20
742.75
 30
0.0
 11
-997.4999999999999
 21
747.75
 31
0.0
1001
DBPROPERTIES
1002
{
1000
PbThick
1002
}
  0
LINE
  5
246
330
1F
100
AcDbEntity
  8
HIDDEN
100
AcDbLine
 10
997.4999999999999
 20
747.75
 30
0.0
 11
997.4999999999999
 21
747.75
 31
0.0
1001
DBPROPERTIES
1002
{
1000
PbHidd
1002
}
  0
LINE
  5
247
330
1F
100
AcDbEntity
  8
HIDDEN
100
AcDbLine
 10
1002.5
 20
742.75
 30
0.0
 11
1002.5
 21
742.75
 31
0.0
1001
DBPROPERTIES
1002
{
1000
PbHidd
1002
}
  0
LINE
  5
248
330
1F
100
AcDbEntity
  8
HIDDEN
100
AcDbLine
 10
997.5
 20
742.75
 30
0.0
 11
1002.5
 21
742.75
 31
0.0
1001
DBPROPERTIES
1002
{
1000
PbHidd
1002
}
  0
LINE
  5
249
330
1F
100
AcDbEntity
  8
THICK
100
AcDbLine
 10
-1002.5
 20
742.75
 30
0.0
 11
-997.4999999999999
 21
742.75
 31
0.0
1001
DBPROPERTIES
1002
{
1000
PbThick
1002
}
  0
ARC
  5
24A
330
1F
100
AcDbEntity
  8
THICK
100
AcDbCircle
 10
-997.4999999999999
 20
742.7499999999999
 30
0.0
 40
5.0
100
AcDbArc
 50
89.99998127603165
 51
179.9999801521572
1001
DBPROPERTIES
1002
{
1000
PbThick
1002
}
  0
LINE
  5
24B
330
1F
100
AcDbEntity
  8
HIDDEN
100
AcDbLine
 10
-997.4999999999999
 20
747.7499999999999
 30
0.0
 11
-997.5000000000001
 21
747.7500000000001
 31
0.0
1001
DBPROPERTIES
1002
{
1000
PbHidd
1002
}
  0
LINE
  5
24C
330
1F
100
AcDbEntity
  8
HIDDEN
100
AcDbLine
 10
-1002.5
 20
742.7499999999998
 30
0.0
 11
-1002.5
 21
742.75
 31
0.0
1001
DBPROPERTIES
1002
{
1000
PbHidd
1002
}
  0
LINE
  5
24D
330
1F
100
AcDbEntity
  8
HIDDEN
100
AcDbLine
 10
1002.5
 20
-742.75
 30
0.0
 11
1002.5
 21
-546.25
 31
0.0
1001
DBPROPERTIES
1002
{
1000
PbHidd
1002
}
  0
LINE
  5
24E
330
1F
100
AcDbEntity
  8
THICK
100
AcDbLine
 10
1002.5
 20
-546.25
 30
0.0
 11
1002.5
 21
742.75
 31
0.0
1001
DBPROPERTIES
1002
{
1000
PbThick
1002
}
  0
LINE
  5
24F
330
1F
100
AcDbEntity
  8
HIDDEN
100
AcDbLine
 10
-1002.5
 20
-742.7499999999999
 30
0.0
 11
-1002.5
 21
-546.25
 31
0.0
1001
DBPROPERTIES
1002
{
1000
PbHidd
1002
}
  0
LINE
  5
250
330
1F
100
AcDbEntity
  8
THICK
100
AcDbLine
 10
-1002.5
 20
-546.25
 30
0.0
 11
-1002.5
 21
742.7499999999998
 31
0.0
1001
DBPROPERTIES
1002
{
1000
PbThick
1002
}
  0
LINE
  5
251
330
1F
100
AcDbEntity
  8
HIDDEN
100
AcDbLine
 10
902.25
 20
-647.5
 30
0.0
 11
902.2499999999999
 21
-647.5
 31
0.0
1001
DBPROPERTIES
1002
{
1000
PbHidd
1002
}
  0
LINE
  5
252
330
1F
100
AcDbEntity
  8
THICK
100
AcDbLine
 10
-857.125
 20
750.75
 30
0.0
 11
-857.125
 21
747.75
 31
0.0
1001
DBPROPERTIES
1002
{
1000
PbThick
1002
}
  0
LINE
  5
253
330
1F
100
AcDbEntity
  8
THICK
100
AcDbLine
 10
345.8750000000001
 20
750.75
 30
0.0
 11
345.8750000000001
 21
747.75
 31
0.0
1001
DBPROPERTIES
1002
{
1000
PbThick
1002
}
  0
LINE
  5
254
330
1F
100
AcDbEntity
  8
THICK
100
AcDbLine
 10
-807.0
 20
750.75
 30
0.0
 11
-807.0
 21
747.75
 31
0.0
1001
DBPROPERTIES
1002
{
1000
PbThick
1002
}
  0
LINE
  5
255
330
1F
100
AcDbEntity
  8
THICK
100
AcDbLine
 10
-531.3125
 20
750.75
 30
0.0
 11
-531.3125
 21
747.75
 31
0.0
1001
DBPROPERTIES
1002
{
1000
PbThick
1002
}
  0
LINE
  5
256
330
1F
100
AcDbEntity
  8
THICK
100
AcDbLine
 10
-255.6249999999999
 20
750.75
 30
0.0
 11
-255.6249999999999
 21
747.75
 31
0.0
1001
DBPROPERTIES
1002
{
1000
PbThick
1002
}
  0
LINE
  5
257
330
1F
100
AcDbEntity
  8
THICK
100
AcDbLine
 10
20.06250000000005
 20
750.75
 30
0.0
 11
20.06250000000005
 21
747.75
 31
0.0
1001
DBPROPERTIES
1002
{
1000
PbThick
1002
}
  0
LINE
  5
258
330
1F
100
AcDbEntity
  8
THICK
100
AcDbLine
 10
295.7500000000001
 20
750.75
 30
0.0
 11
295.7500000000001
 21
747.75
 31
0.0
1001
DBPROPERTIES
1002
{
1000
PbThick
1002
}
  0
LINE
  5
259
330
1F
100
AcDbEntity
  8
HIDDEN
100
AcDbLine
 10
1049.6
 20
-750.75
 30
0.0
 11
1049.6
 21
-747.6500244140625
 31
0.0
1001
DBPROPERTIES
1002
{
1000
PbHidd
1002
}
  0
LINE
  5
25A
330
1F
100
AcDbEntity
  8
HIDDEN
100
AcDbLine
 10
-1034.6
 20
-750.75
 30
0.0
 11
-1034.6
 21
-747.6500244140625
 31
0.0
1001
DBPROPERTIES
1002
{
1000
PbHidd
1002
}
  0
LINE
  5
25B
330
1F
100
AcDbEntity
  8
HIDDEN
100
AcDbLine
 10
-1034.6
 20
-750.75
 30
0.0
 11
-1034.6
 21
-747.6500244140625
 31
0.0
1001
DBPROPERTIES
1002
{
1000
PbHidd
1002
}
  0
LINE
  5
25C
330
1F
100
AcDbEntity
  8
HIDDEN
100
AcDbLine
 10
1049.6
 20
-750.75
 30
0.0
 11
1049.6
 21
-747.6500244140625
 31
0.0
1001
DBPROPERTIES
1002
{
1000
PbHidd
1002
}
  0
LINE
  5
25D
330
1F
100
AcDbEntity
  8
HIDDEN
100
AcDbLine
 10
1034.599975585938
 20
-750.75
 30
0.0
 11
1034.599975585938
 21
-747.6500244140625
 31
0.0
1001
DBPROPERTIES
1002
{
1000
PbHidd
1002
}
  0
LINE
  5
25E
330
1F
100
AcDbEntity
  8
HIDDEN
100
AcDbLine
 10
-1049.599975585938
 20
-750.75
 30
0.0
 11
-1049.599975585938
 21
-747.6500244140625
 31
0.0
1001
DBPROPERTIES
1002
{
1000
PbHidd
1002
}
  0
LINE
  5
25F
330
1F
100
AcDbEntity
  8
HIDDEN
100
AcDbLine
 10
-1049.599975585938
 20
-750.75
 30
0.0
 11
-1049.599975585938
 21
-747.6500244140625
 31
0.0
1001
DBPROPERTIES
1002
{
1000
PbHidd
1002
}
  0
LINE
  5
260
330
1F
100
AcDbEntity
  8
HIDDEN
100
AcDbLine
 10
1034.599975585938
 20
-750.75
 30
0.0
 11
1034.599975585938
 21
-747.6500244140625
 31
0.0
1001
DBPROPERTIES
1002
{
1000
PbHidd
1002
}
  0
LINE
  5
261
330
1F
100
AcDbEntity
  8
THICK
100
AcDbLine
 10
305.75
 20
750.75
 30
0.0
 11
305.75
 21
747.75
 31
0.0
1001
DBPROPERTIES
1002
{
1000
PbThick
1002
}
  0
LINE
  5
262
330
1F
100
AcDbEntity
  8
THICK
100
AcDbLine
 10
30.0625
 20
750.75
 30
0.0
 11
30.0625
 21
747.75
 31
0.0
1001
DBPROPERTIES
1002
{
1000
PbThick
1002
}
  0
LINE
  5
263
330
1F
100
AcDbEntity
  8
THICK
100
AcDbLine
 10
-245.625
 20
750.75
 30
0.0
 11
-245.625
 21
747.75
 31
0.0
1001
DBPROPERTIES
1002
{
1000
PbThick
1002
}
  0
LINE
  5
264
330
1F
100
AcDbEntity
  8
THICK
100
AcDbLine
 10
-521.3125
 20
750.75
 30
0.0
 11
-521.3125
 21
747.75
 31
0.0
1001
DBPROPERTIES
1002
{
1000
PbThick
1002
}
  0
LINE
  5
265
330
1F
100
AcDbEntity
  8
THICK
100
AcDbLine
 10
-797.0
 20
750.75
 30
0.0
 11
-797.0
 21
747.75
 31
0.0
1001
DBPROPERTIES
1002
{
1000
PbThick
1002
}
  0
LINE
  5
266
330
1F
100
AcDbEntity
  8
THICK
100
AcDbLine
 10
355.875
 20
750.75
 30
0.0
 11
355.875
 21
747.75
 31
0.0
1001
DBPROPERTIES
1002
{
1000
PbThick
1002
}
  0
LINE
  5
267
330
1F
100
AcDbEntity
  8
THICK
100
AcDbLine
 10
-847.125
 20
750.75
 30
0.0
 11
-847.125
 21
747.75
 31
0.0
1001
DBPROPERTIES
1002
{
1000
PbThick
1002
}
  0
ENDSEC
  0
SECTION
  2
OBJECTS
  0
DICTIONARY
  5
C
330
0
100
AcDbDictionary
  3
ACAD_GROUP
350
D
  3
ACAD_LAYOUT
350
1A
  3
ACAD_MATERIAL
350
43
  3
ACAD_MLEADERSTYLE
350
6B
  3
ACAD_MLINESTYLE
350
17
  3
ACAD_PLOTSETTINGS
350
19
  3
ACAD_SCALELIST
350
47
  3
ACAD_VISUALSTYLE
350
2A
  3
ACDBVARIABLEDICTIONARY
350
268
1001
ACAD
1000
TREAT_AS_HARD
1070
     0
  0
DICTIONARY
  5
D
102
{ACAD_REACTORS
330
C
102
}
330
C
100
AcDbDictionary
1001
ACAD
1000
TREAT_AS_HARD
1070
     0
  0
DICTIONARY
  5
1A
102
{ACAD_REACTORS
330
C
102
}
330
C
100
AcDbDictionary
1001
ACAD
1000
TREAT_AS_HARD
1070
     0
  0
DICTIONARY
  5
43
102
{ACAD_REACTORS
330
C
102
}
330
C
100
AcDbDictionary
  3
BYBLOCK
350
45
  3
BYLAYER
350
44
  3
GLOBAL
350
46
1001
ACAD
1000
TREAT_AS_HARD
1070
     0
  0
DICTIONARY
  5
6B
102
{ACAD_REACTORS
330
C
102
}
330
C
100
AcDbDictionary
  3
STANDARD
350
6C
1001
ACAD
1000
TREAT_AS_HARD
1070
     0
  0
DICTIONARY
  5
17
102
{ACAD_REACTORS
330
C
102
}
330
C
100
AcDbDictionary
  3
STANDARD
350
18
1001
ACAD
1000
TREAT_AS_HARD
1070
     0
  0
DICTIONARY
  5
19
102
{ACAD_REACTORS
330
C
102
}
330
C
100
AcDbDictionary
1001
ACAD
1000
TREAT_AS_HARD
1070
     0
  0
DICTIONARY
  5
47
102
{ACAD_REACTORS
330
C
102
}
330
C
100
AcDbDictionary
  3
A0
350
48
  3
A1
350
49
  3
A2
350
4A
  3
A3
350
4B
  3
A4
350
4C
  3
A5
350
4D
  3
A6
350
4E
  3
A7
350
4F
  3
A8
350
50
  3
A9
350
51
  3
B0
350
52
  3
B1
350
53
  3
B2
350
54
  3
B3
350
55
  3
B4
350
56
  3
B5
350
57
  3
B6
350
58
  3
B7
350
59
  3
B8
350
5A
  3
B9
350
5B
  3
C0
350
5C
  3
C1
350
5D
  3
C2
350
5E
  3
C3
350
5F
  3
C4
350
60
  3
C5
350
61
  3
C6
350
62
  3
C7
350
63
  3
C8
350
64
  3
C9
350
65
  3
D0
350
66
  3
D1
350
67
  3
D2
350
68
1001
ACAD
1000
TREAT_AS_HARD
1070
     0
  0
DICTIONARY
  5
2A
102
{ACAD_REACTORS
330
C
102
}
330
C
100
AcDbDictionary
  3
2DWIREFRAME
350
2F
  3
BASIC
350
32
  3
BRIGHTEN
350
36
  3
COLORCHANGE
350
3A
  3
CONCEPTUAL
350
34
  3
DIM
350
35
  3
EDGECOLOROFF
350
3D
  3
FACEPATTERN
350
39
  3
FLAT
350
2B
  3
FLATWITHEDGES
350
2C
  3
GOURAUD
350
2D
  3
GOURAUDWITHEDGES
350
2E
  3
HIDDEN
350
31
  3
JITTEROFF
350
3B
  3
LINEPATTERN
350
38
  3
OVERHANGOFF
350
3C
  3
REALISTIC
350
33
  3
SHADED
350
42
  3
SHADED_WITH_EDGES
350
41
  3
SHADES_OF_GRAY
350
3E
  3
SKETCHY
350
3F
  3
THICKEN
350
37
  3
WIREFRAME
350
30
  3
X-RAY
350
40
1001
ACAD
1000
TREAT_AS_HARD
1070
     0
  0
DICTIONARY
  5
268
102
{ACAD_REACTORS
330
C
102
}
330
C
100
AcDbDictionary
  3
CANNOSCALE
350
273
  3
CENTEREXE
350
26F
  3
CENTERLTYPEFILE
350
270
  3
CMLEADERSTYLE
350
26A
  3
CTABLESTYLE
350
269
  3
DIMASSOC
350
271
  3
HIDETEXT
350
272
  3
MSLTSCALE
350
274
  3
PSOLHEIGHT
350
26C
  3
PSOLWIDTH
350
26B
1001
ACAD
1000
TREAT_AS_HARD
1070
     0
  0
MATERIAL
  5
45
102
{ACAD_REACTORS
330
43
102
}
102
{ACAD_XDICTIONARY
360
277
102
}
330
43
100
AcDbMaterial
  1
BYBLOCK
  0
MATERIAL
  5
44
102
{ACAD_REACTORS
330
43
102
}
102
{ACAD_XDICTIONARY
360
275
102
}
330
43
100
AcDbMaterial
  1
BYLAYER
  0
MATERIAL
  5
46
102
{ACAD_REACTORS
330
43
102
}
102
{ACAD_XDICTIONARY
360
279
102
}
330
43
100
AcDbMaterial
  1
GLOBAL
  0
ACAD_PROXY_OBJECT
  5
6C
102
{ACAD_REACTORS
330
6B
102
}
330
6B
100
AcDbZombieObject
 90
      499
 91
      505
 93
      610
310
40901902A4063FBFFFFFE0000000000000020400000000000020404214DD185B99185C990000000000000104090141901A00000000000004100000000000000041025764000000000000039000
340
14
340
0
340
11
340
0
 94
        0
1001
ACAD_MLEADERVER
1070
     2
  0
MLINESTYLE
  5
18
102
{ACAD_REACTORS
330
17
102
}
330
17
100
AcDbMlineStyle
  2
Standard
 70
     0
  3

 62
   256
 51
90.0
 52
90.0
 71
     2
 49
0.5
 62
   256
  6
BYLAYER
 49
-0.5
 62
   256
  6
BYLAYER
  0
ACAD_PROXY_OBJECT
  5
48
102
{ACAD_REACTORS
330
47
102
}
330
47
100
AcDbZombieObject
 90
      499
 91
      503
 93
       41
310
903313A31580
  0
ACAD_PROXY_OBJECT
  5
49
102
{ACAD_REACTORS
330
47
102
}
330
47
100
AcDbZombieObject
 90
      499
 91
      503
 93
      105
310
903313A324000000000000004000
  0
ACAD_PROXY_OBJECT
  5
4A
102
{ACAD_REACTORS
330
47
102
}
330
47
100
AcDbZombieObject
 90
      499
 91
      503
 93
      105
310
903313A344000000000000104000
  0
ACAD_PROXY_OBJECT
  5
4B
102
{ACAD_REACTORS
330
47
102
}
330
47
100
AcDbZombieObject
 90
      499
 91
      503
 93
      105
310
903313A354000000000000144000
  0
ACAD_PROXY_OBJECT
  5
4C
102
{ACAD_REACTORS
330
47
102
}
330
47
100
AcDbZombieObject
 90
      499
 91
      503
 93
      105
310
903313A384000000000000204000
  0
ACAD_PROXY_OBJECT
  5
4D
102
{ACAD_REACTORS
330
47
102
}
330
47
100
AcDbZombieObject
 90
      499
 91
      503
 93
      113
310
904313A31304000000000000244000
  0
ACAD_PROXY_OBJECT
  5
4E
102
{ACAD_REACTORS
330
47
102
}
330
47
100
AcDbZombieObject
 90
      499
 91
      503
 93
      113
310
904313A31364000000000000304000
  0
ACAD_PROXY_OBJECT
  5
4F
102
{ACAD_REACTORS
330
47
102
}
330
47
100
AcDbZombieObject
 90
      499
 91
      503
 93
      113
310
904313A32304000000000000344000
  0
ACAD_PROXY_OBJECT
  5
50
102
{ACAD_REACTORS
330
47
102
}
330
47
100
AcDbZombieObject
 90
      499
 91
      503
 93
      113
310
904313A333040000000000003E4000
  0
ACAD_PROXY_OBJECT
  5
51
102
{ACAD_REACTORS
330
47
102
}
330
47
100
AcDbZombieObject
 90
      499
 91
      503
 93
      113
310
904313A34304000000000000444000
  0
ACAD_PROXY_OBJECT
  5
52
102
{ACAD_REACTORS
330
47
102
}
330
47
100
AcDbZombieObject
 90
      499
 91
      503
 93
      113
310
904313A35304000000000000494000
  0
ACAD_PROXY_OBJECT
  5
53
102
{ACAD_REACTORS
330
47
102
}
330
47
100
AcDbZombieObject
 90
      499
 91
      503
 93
      121
310
905313A3130304000000000000594000
  0
ACAD_PROXY_OBJECT
  5
54
102
{ACAD_REACTORS
330
47
102
}
330
47
100
AcDbZombieObject
 90
      499
 91
      503
 93
      105
310
903323A310000000000000010100
  0
ACAD_PROXY_OBJECT
  5
55
102
{ACAD_REACTORS
330
47
102
}
330
47
100
AcDbZombieObject
 90
      499
 91
      503
 93
      105
310
903343A310000000000000410100
  0
ACAD_PROXY_OBJECT
  5
56
102
{ACAD_REACTORS
330
47
102
}
330
47
100
AcDbZombieObject
 90
      499
 91
      503
 93
      105
310
903383A310000000000000810100
  0
ACAD_PROXY_OBJECT
  5
57
102
{ACAD_REACTORS
330
47
102
}
330
47
100
AcDbZombieObject
 90
      499
 91
      503
 93
      113
310
90431303A310000000000000910100
  0
ACAD_PROXY_OBJECT
  5
58
102
{ACAD_REACTORS
330
47
102
}
330
47
100
AcDbZombieObject
 90
      499
 91
      503
 93
      121
310
9053130303A310000000000001650100
  0
ACAD_PROXY_OBJECT
  5
59
102
{ACAD_REACTORS
330
47
102
}
330
47
100
AcDbZombieObject
 90
      499
 91
      503
 93
      257
310
90E312F31323822203D2031272D3022000000000000200FC000000000000284000
  0
ACAD_PROXY_OBJECT
  5
5A
102
{ACAD_REACTORS
330
47
102
}
330
47
100
AcDbZombieObject
 90
      499
 91
      503
 93
      249
310
90D312F363422203D2031272D3022000000000000240FC000000000000284000
  0
ACAD_PROXY_OBJECT
  5
5B
102
{ACAD_REACTORS
330
47
102
}
330
47
100
AcDbZombieObject
 90
      499
 91
      503
 93
      249
310
90D312F333222203D2031272D3022000000000000280FC000000000000284000
  0
ACAD_PROXY_OBJECT
  5
5C
102
{ACAD_REACTORS
330
47
102
}
330
47
100
AcDbZombieObject
 90
      499
 91
      503
 93
      249
310
90D312F313622203D2031272D30220000000000002C0FC000000000000284000
  0
ACAD_PROXY_OBJECT
  5
5D
102
{ACAD_REACTORS
330
47
102
}
330
47
100
AcDbZombieObject
 90
      499
 91
      503
 93
      249
310
90D332F333222203D2031272D30220000000000002E0FC000000000000284000
  0
ACAD_PROXY_OBJECT
  5
5E
102
{ACAD_REACTORS
330
47
102
}
330
47
100
AcDbZombieObject
 90
      499
 91
      503
 93
      241
310
90C312F3822203D2031272D3022000000000000300FC000000000000284000
  0
ACAD_PROXY_OBJECT
  5
5F
102
{ACAD_REACTORS
330
47
102
}
330
47
100
AcDbZombieObject
 90
      499
 91
      503
 93
      249
310
90D332F313622203D2031272D3022000000000000320FC000000000000284000
  0
ACAD_PROXY_OBJECT
  5
60
102
{ACAD_REACTORS
330
47
102
}
330
47
100
AcDbZombieObject
 90
      499
 91
      503
 93
      241
310
90C312F3422203D2031272D3022000000000000340FC000000000000284000
  0
ACAD_PROXY_OBJECT
  5
61
102
{ACAD_REACTORS
330
47
102
}
330
47
100
AcDbZombieObject
 90
      499
 91
      503
 93
      241
310
90C332F3822203D2031272D3022000000000000360FC000000000000284000
  0
ACAD_PROXY_OBJECT
  5
62
102
{ACAD_REACTORS
330
47
102
}
330
47
100
AcDbZombieObject
 90
      499
 91
      503
 93
      241
310
90C312F3222203D2031272D3022000000000000380FC000000000000284000
  0
ACAD_PROXY_OBJECT
  5
63
102
{ACAD_REACTORS
330
47
102
}
330
47
100
AcDbZombieObject
 90
      499
 91
      503
 93
      241
310
90C332F3422203D2031272D30220000000000003A0FC000000000000284000
  0
ACAD_PROXY_OBJECT
  5
64
102
{ACAD_REACTORS
330
47
102
}
330
47
100
AcDbZombieObject
 90
      499
 91
      503
 93
      161
310
90A3122203D2031272D30224000000000000284000
  0
ACAD_PROXY_OBJECT
  5
65
102
{ACAD_REACTORS
330
47
102
}
330
47
100
AcDbZombieObject
 90
      499
 91
      503
 93
      257
310
90E312D312F3222203D2031272D30220000000000003E0FC000000000000284000
  0
ACAD_PROXY_OBJECT
  5
66
102
{ACAD_REACTORS
330
47
102
}
330
47
100
AcDbZombieObject
 90
      499
 91
      503
 93
      225
310
90A3322203D2031272D302200000000000002100000000000000284000
  0
ACAD_PROXY_OBJECT
  5
67
102
{ACAD_REACTORS
330
47
102
}
330
47
100
AcDbZombieObject
 90
      499
 91
      503
 93
      225
310
90A3622203D2031272D302200000000000006100000000000000284000
  0
ACAD_PROXY_OBJECT
  5
68
102
{ACAD_REACTORS
330
47
102
}
330
47
100
AcDbZombieObject
 90
      499
 91
      503
 93
      249
310
90D31272D3022203D2031272D30220000000000000A100000000000000284000
  0
ACAD_PROXY_OBJECT
  5
2F
102
{ACAD_REACTORS
330
2A
102
}
330
2A
100
AcDbZombieObject
 90
      499
 91
      501
 93
      436
310
42CC9915DA5C99599C985B595049028333333333333E33F0000000000000F90107901411070040501600405405064090741402480A0340
1001
ACAD
1000
AcDbSavedByObjectVersion
1070
     0
  0
ACAD_PROXY_OBJECT
  5
32
102
{ACAD_REACTORS
330
2A
102
}
330
2A
100
AcDbZombieObject
 90
      499
 91
      501
 93
      388
310
4150985CDA58D07406404333333333333E33F0000000000000F90107A41107004050150841D405064090741402480A0350
1001
ACAD
1000
AcDbSavedByObjectVersion
1070
     0
  0
ACAD_PROXY_OBJECT
  5
36
102
{ACAD_REACTORS
330
2A
102
}
330
2A
100
AcDbZombieObject
 90
      499
 91
      501
 93
      428
310
42109C9A59DA1D195B90C409028333333333333E33F0000000000000F9010790141107004050150841D405064090741402480A029950
1001
ACAD
1000
AcDbSavedByObjectVersion
1070
     0
  0
ACAD_PROXY_OBJECT
  5
3A
102
{ACAD_REACTORS
330
2A
102
}
330
2A
100
AcDbZombieObject
 90
      499
 91
      501
 93
      452
310
42D0DBDB1BDC90DA185B99D95104090240C333333333333E33F0000000000000F90108901411070040501508421405064090741402480A0350
1001
ACAD
1000
AcDbSavedByObjectVersion
1070
     0
  0
ACAD_PROXY_OBJECT
  5
34
102
{ACAD_REACTORS
330
2A
102
}
330
2A
100
AcDbZombieObject
 90
      499
 91
      501
 93
      500
310
4290DBDB98D95C1D1D585B10940D028333333333333E33F0000000000000F90107902409070040501000000000018199010841D405064090740C02480A0340
1001
ACAD
1000
AcDbSavedByObjectVersion
1070
     0
  0
ACAD_PROXY_OBJECT
  5
35
102
{ACAD_REACTORS
330
2A
102
}
330
2A
100
AcDbZombieObject
 90
      499
 91
      501
 93
      412
310
40D11A5B50B409028333333333333E33F0000000000000F9010790141107004050150841D405064090741402480A02677FFFFFD0
1001
ACAD
1000
AcDbSavedByObjectVersion
1070
     0
  0
ACAD_PROXY_OBJECT
  5
3D
102
{ACAD_REACTORS
330
2A
102
}
330
2A
100
AcDbZombieObject
 90
      499
 91
      501
 93
      452
310
43115919D950DBDB1BDC93D999916409028333333333333E33F0000000000000F9010790141107004050150841D405064090741402480A0350
1001
ACAD
1000
AcDbSavedByObjectVersion
1070
     0
  0
ACAD_PROXY_OBJECT
  5
39
102
{ACAD_REACTORS
330
2A
102
}
330
2A
100
AcDbZombieObject
 90
      499
 91
      501
 93
      444
310
42D19858D95C185D1D195C9B90F409028333333333333E33F0000000000000F9010790141107004050150841D405064090741402480A0350
1001
ACAD
1000
AcDbSavedByObjectVersion
1070
     0
  0
ACAD_PROXY_OBJECT
  5
2B
102
{ACAD_REACTORS
330
2A
102
}
330
2A
100
AcDbZombieObject
 90
      499
 91
      501
 93
      380
310
41119B185D240901404333333333333E33F0000000000000F9010740A907004050150841D405064090741402480A1B50
1001
ACAD
1000
AcDbSavedByObjectVersion
1070
     0
  0
ACAD_PROXY_OBJECT
  5
2C
102
{ACAD_REACTORS
330
2A
102
}
330
2A
100
AcDbZombieObject
 90
      499
 91
      501
 93
      468
310
43519B185D15DA5D1A115919D95CD0140901404333333333333E33F0000000000000F90107409019070040501600405405064090741402480A1B50
1001
ACAD
1000
AcDbSavedByObjectVersion
1070
     0
  0
ACAD_PROXY_OBJECT
  5
2D
102
{ACAD_REACTORS
330
2A
102
}
330
2A
100
AcDbZombieObject
 90
      499
 91
      501
 93
      404
310
41D1DBDD5C985D5910240902404333333333333E33F0000000000000F9010740A9070040501641D405064090741402480A1B50
1001
ACAD
1000
AcDbSavedByObjectVersion
1070
     0
  0
ACAD_PROXY_OBJECT
  5
2E
102
{ACAD_REACTORS
330
2A
102
}
330
2A
100
AcDbZombieObject
 90
      499
 91
      501
 93
      492
310
4411DBDD5C985D5915DA5D1A115919D95CD0340902404333333333333E33F0000000000000F90107409019070040501600405405064090741402480A1B50
1001
ACAD
1000
AcDbSavedByObjectVersion
1070
     0
  0
ACAD_PROXY_OBJECT
  5
31
102
{ACAD_REACTORS
330
2A
102
}
330
2A
100
AcDbZombieObject
 90
      499
 91
      501
 93
      476
310
41921A5919195B90640502408333333333333E33F0000000000000F901079024090700405020000000000001110200405405064090740C02480A0340
1001
ACAD
1000
AcDbSavedByObjectVersion
1070
     0
  0
ACAD_PROXY_OBJECT
  5
3B
102
{ACAD_REACTORS
330
2A
102
}
330
2A
100
AcDbZombieObject
 90
      499
 91
      501
 93
      428
310
42529A5D1D195C93D999914409028333333333333E33F0000000000000F9010790141107004050150A41D405064090741402480A0350
1001
ACAD
1000
AcDbSavedByObjectVersion
1070
     0
  0
ACAD_PROXY_OBJECT
  5
38
102
{ACAD_REACTORS
330
2A
102
}
330
2A
100
AcDbZombieObject
 90
      499
 91
      501
 93
      444
310
42D31A5B995C185D1D195C9B90E409028333333333333E33F0000000000000F9010790141107004050750841D405064090741402483A0350
1001
ACAD
1000
AcDbSavedByObjectVersion
1070
     0
  0
ACAD_PROXY_OBJECT
  5
3C
102
{ACAD_REACTORS
330
2A
102
}
330
2A
100
AcDbZombieObject
 90
      499
 91
      501
 93
      444
310
42D3DD995C9A185B99D3D999915409028333333333333E33F0000000000000F9010790141107004050150941D405064090741402480A0350
1001
ACAD
1000
AcDbSavedByObjectVersion
1070
     0
  0
ACAD_PROXY_OBJECT
  5
33
102
{ACAD_REACTORS
330
2A
102
}
330
2A
100
AcDbZombieObject
 90
      499
 91
      501
 93
      428
310
425499585B1A5CDD1A58D08409038333333333333E33F0000000000000F9010740A907004050150800405405064090740C02480A1B40
1001
ACAD
1000
AcDbSavedByObjectVersion
1070
     0
  0
ACAD_PROXY_OBJECT
  5
42
102
{ACAD_REACTORS
330
2A
102
}
330
2A
100
AcDbZombieObject
 90
      499
 91
      501
 93
      420
310
4194DA1859195911B40902404333333333333E33F0000000000000F9010740A41107004050150800405405064090840C02480A0B40
1001
ACAD
1000
AcDbSavedByObjectVersion
1070
     0
  0
ACAD_PROXY_OBJECT
  5
41
102
{ACAD_REACTORS
330
2A
102
}
330
2A
100
AcDbZombieObject
 90
      499
 91
      501
 93
      516
310
4454DA18591959081DDA5D1A08195919D95CD1A40902404333333333333E33F0000000000000F901074090142907004050250800405405064090740C02480A0B40
1001
ACAD
1000
AcDbSavedByObjectVersion
1070
     0
  0
ACAD_PROXY_OBJECT
  5
3E
102
{ACAD_REACTORS
330
2A
102
}
330
2A
100
AcDbZombieObject
 90
      499
 91
      501
 93
      532
310
4394DA1859195CC81BD98811DC985E5174090240C333333333333E33F0000000000000F901079024090741D01000000000000111010841D405064090740C02480A0340
1001
ACAD
1000
AcDbSavedByObjectVersion
1070
     0
  0
ACAD_PROXY_OBJECT
  5
3F
102
{ACAD_REACTORS
330
2A
102
}
330
2A
100
AcDbZombieObject
 90
      499
 91
      501
 93
      476
310
41D4DAD95D18DA1E51840502408333333333333E33F0000000000000F901079024090741D01000000000000111010B41D405064090741802480A0340
1001
ACAD
1000
AcDbSavedByObjectVersion
1070
     0
  0
ACAD_PROXY_OBJECT
  5
37
102
{ACAD_REACTORS
330
2A
102
}
330
2A
100
AcDbZombieObject
 90
      499
 91
      501
 93
      412
310
41D51A1A58DAD95B90D409028333333333333E33F0000000000000F9010790141107004050150C41D405064090741402480A0350
1001
ACAD
1000
AcDbSavedByObjectVersion
1070
     0
  0
ACAD_PROXY_OBJECT
  5
30
102
{ACAD_REACTORS
330
2A
102
}
330
2A
100
AcDbZombieObject
 90
      499
 91
      501
 93
      420
310
4255DA5C99599C985B595059028333333333333E33F0000000000000F90107901411070040501600405405064090740C02480A0340
1001
ACAD
1000
AcDbSavedByObjectVersion
1070
     0
  0
ACAD_PROXY_OBJECT
  5
40
102
{ACAD_REACTORS
330
2A
102
}
330
2A
100
AcDbZombieObject
 90
      499
 91
      501
 93
      404
310
41560B54985E51940902404000000000000E03F0000000000000F9010740501907004050150841D405064090740C02480A1B40
1001
ACAD
1000
AcDbSavedByObjectVersion
1070
     0
  0
DICTIONARYVAR
  5
273
102
{ACAD_REACTORS
330
268
102
}
330
268
100
DictionaryVariables
280
     0
  1
1:1
  0
DICTIONARYVAR
  5
26F
102
{ACAD_REACTORS
330
268
102
}
330
268
100
DictionaryVariables
280
     0
  1
3.500000
  0
DICTIONARYVAR
  5
270
102
{ACAD_REACTORS
330
268
102
}
330
268
100
DictionaryVariables
280
     0
  1
acadiso.lin
  0
DICTIONARYVAR
  5
26A
102
{ACAD_REACTORS
330
268
102
}
330
268
100
DictionaryVariables
280
     0
  1
Standard
  0
DICTIONARYVAR
  5
269
102
{ACAD_REACTORS
330
268
102
}
330
268
100
DictionaryVariables
280
     0
  1
Standard
  0
DICTIONARYVAR
  5
271
102
{ACAD_REACTORS
330
268
102
}
330
268
100
DictionaryVariables
280
     0
  1
2
  0
DICTIONARYVAR
  5
272
102
{ACAD_REACTORS
330
268
102
}
330
268
100
DictionaryVariables
280
     0
  1
1
  0
DICTIONARYVAR
  5
274
102
{ACAD_REACTORS
330
268
102
}
330
268
100
DictionaryVariables
280
     0
  1
1
  0
DICTIONARYVAR
  5
26C
102
{ACAD_REACTORS
330
268
102
}
330
268
100
DictionaryVariables
280
     0
  1
80.000000
  0
DICTIONARYVAR
  5
26B
102
{ACAD_REACTORS
330
268
102
}
330
268
100
DictionaryVariables
280
     0
  1
5.000000
  0
DICTIONARY
  5
277
330
45
100
AcDbDictionary
  3
ACAD_XREC_ROUNDTRIP
360
278
1001
ACAD
1000
TREAT_AS_HARD
1070
     1
  0
DICTIONARY
  5
275
330
44
100
AcDbDictionary
  3
ACAD_XREC_ROUNDTRIP
360
276
1001
ACAD
1000
TREAT_AS_HARD
1070
     1
  0
DICTIONARY
  5
279
330
46
100
AcDbDictionary
  3
ACAD_XREC_ROUNDTRIP
360
27A
1001
ACAD
1000
TREAT_AS_HARD
1070
     1
  0
XRECORD
  5
278
102
{ACAD_REACTORS
330
277
102
}
330
277
100
AcDbXrecord
102
MATERIAL
148
0.0
149
0.0
149
0.0
 93
        0
 94
      127
282
     0
 72
     1
 77
     1
171
     1
175
     1
179
     1
273
     0
  0
XRECORD
  5
276
102
{ACAD_REACTORS
330
275
102
}
330
275
100
AcDbXrecord
102
MATERIAL
148
0.0
149
0.0
149
0.0
 93
        0
 94
      127
282
     0
 72
     1
 77
     1
171
     1
175
     1
179
     1
273
     0
  0
XRECORD
  5
27A
102
{ACAD_REACTORS
330
279
102
}
330
279
100
AcDbXrecord
102
MATERIAL
148
0.0
149
0.0
149
0.0
 93
        0
 94
      127
282
     0
 72
     1
 77
     1
171
     1
175
     1
179
     1
273
     0
  0
ENDSEC
  0
EOF
