  0
SECTION
  2
HEADER
  9
$ACADVER
  1
AC1012
  9
$DWGCODEPAGE
  3
ansi_1252
  9
$INSBASE
 10
0.0
 20
0.0
 30
0.0
  9
$EXTMIN
 10
1.000000000000000E+20
 20
1.000000000000000E+20
 30
1.000000000000000E+20
  9
$EXTMAX
 10
-1.000000000000000E+20
 20
-1.000000000000000E+20
 30
-1.000000000000000E+20
  9
$LIMMIN
 10
0.0
 20
0.0
  9
$LIMMAX
 10
420.0
 20
297.0
  9
$ORTHOMODE
 70
     0
  9
$REGENMODE
 70
     1
  9
$FILLMODE
 70
     1
  9
$QTEXTMODE
 70
     0
  9
$MIRRTEXT
 70
     1
  9
$DRAGMODE
 70
     2
  9
$LTSCALE
 40
1.0
  9
$OSMODE
 70
    37
  9
$ATTMODE
 70
     1
  9
$TEXTSIZE
 40
2.5
  9
$TRACEWID
 40
1.0
  9
$TEXTSTYLE
  7
STANDARD
  9
$CLAYER
  8
0
  9
$CELTYPE
  6
BYLAYER
  9
$CECOLOR
 62
   256
  9
$CELTSCALE
 40
1.0
  9
$DELOBJ
 70
     1
  9
$DISPSILH
 70
     0
  9
$DIMSCALE
 40
1.0
  9
$DIMASZ
 40
2.5
  9
$DIMEXO
 40
0.625
  9
$DIMDLI
 40
3.75
  9
$DIMRND
 40
0.0
  9
$DIMDLE
 40
0.0
  9
$DIMEXE
 40
1.25
  9
$DIMTP
 40
0.0
  9
$DIMTM
 40
0.0
  9
$DIMTXT
 40
2.5
  9
$DIMCEN
 40
2.5
  9
$DIMTSZ
 40
0.0
  9
$DIMTOL
 70
     0
  9
$DIMLIM
 70
     0
  9
$DIMTIH
 70
     0
  9
$DIMTOH
 70
     0
  9
$DIMSE1
 70
     0
  9
$DIMSE2
 70
     0
  9
$DIMTAD
 70
     1
  9
$DIMZIN
 70
     8
  9
$DIMBLK
  1

  9
$DIMASO
 70
     1
  9
$DIMSHO
 70
     1
  9
$DIMPOST
  1

  9
$DIMAPOST
  1

  9
$DIMALT
 70
     0
  9
$DIMALTD
 70
     3
  9
$DIMALTF
 40
0.03937007874016
  9
$DIMLFAC
 40
1.0
  9
$DIMTOFL
 70
     1
  9
$DIMTVP
 40
0.0
  9
$DIMTIX
 70
     0
  9
$DIMSOXD
 70
     0
  9
$DIMSAH
 70
     0
  9
$DIMBLK1
  1

  9
$DIMBLK2
  1

  9
$DIMSTYLE
  2
ISO-25
  9
$DIMCLRD
 70
     0
  9
$DIMCLRE
 70
     0
  9
$DIMCLRT
 70
     0
  9
$DIMTFAC
 40
1.0
  9
$DIMGAP
 40
0.625
  9
$DIMJUST
 70
     0
  9
$DIMSD1
 70
     0
  9
$DIMSD2
 70
     0
  9
$DIMTOLJ
 70
     0
  9
$DIMTZIN
 70
     8
  9
$DIMALTZ
 70
     0
  9
$DIMALTTZ
 70
     0
  9
$DIMFIT
 70
     3
  9
$DIMUPT
 70
     0
  9
$DIMUNIT
 70
     2
  9
$DIMDEC
 70
     2
  9
$DIMTDEC
 70
     2
  9
$DIMALTU
 70
     2
  9
$DIMALTTD
 70
     3
  9
$DIMTXSTY
  7
STANDARD
  9
$DIMAUNIT
 70
     0
  9
$LUNITS
 70
     2
  9
$LUPREC
 70
     4
  9
$SKETCHINC
 40
1.0
  9
$FILLETRAD
 40
10.0
  9
$AUNITS
 70
     0
  9
$AUPREC
 70
     0
  9
$MENU
  1
.
  9
$ELEVATION
 40
0.0
  9
$PELEVATION
 40
0.0
  9
$THICKNESS
 40
0.0
  9
$LIMCHECK
 70
     0
  9
$CHAMFERA
 40
0.0
  9
$CHAMFERB
 40
0.0
  9
$CHAMFERC
 40
0.0
  9
$CHAMFERD
 40
0.0
  9
$SKPOLY
 70
     0
  9
$TDCREATE
 40
2457961.438190104
  9
$TDUPDATE
 40
2457961.43819191
  9
$TDINDWG
 40
0.0000000116
  9
$TDUSRTIMER
 40
0.0000000116
  9
$USRTIMER
 70
     1
  9
$ANGBASE
 50
0.0
  9
$ANGDIR
 70
     0
  9
$PDMODE
 70
     0
  9
$PDSIZE
 40
0.0
  9
$PLINEWID
 40
0.0
  9
$COORDS
 70
     1
  9
$SPLFRAME
 70
     0
  9
$SPLINETYPE
 70
     6
  9
$SPLINESEGS
 70
     8
  9
$ATTDIA
 70
     0
  9
$ATTREQ
 70
     1
  9
$HANDLING
 70
     1
  9
$HANDSEED
  5
28F
  9
$SURFTAB1
 70
     6
  9
$SURFTAB2
 70
     6
  9
$SURFTYPE
 70
     6
  9
$SURFU
 70
     6
  9
$SURFV
 70
     6
  9
$UCSNAME
  2

  9
$UCSORG
 10
0.0
 20
0.0
 30
0.0
  9
$UCSXDIR
 10
1.0
 20
0.0
 30
0.0
  9
$UCSYDIR
 10
0.0
 20
1.0
 30
0.0
  9
$PUCSNAME
  2

  9
$PUCSORG
 10
0.0
 20
0.0
 30
0.0
  9
$PUCSXDIR
 10
1.0
 20
0.0
 30
0.0
  9
$PUCSYDIR
 10
0.0
 20
1.0
 30
0.0
  9
$USERI1
 70
     0
  9
$USERI2
 70
     0
  9
$USERI3
 70
     0
  9
$USERI4
 70
     0
  9
$USERI5
 70
     0
  9
$USERR1
 40
0.0
  9
$USERR2
 40
0.0
  9
$USERR3
 40
0.0
  9
$USERR4
 40
0.0
  9
$USERR5
 40
0.0
  9
$WORLDVIEW
 70
     1
  9
$SHADEDGE
 70
     3
  9
$SHADEDIF
 70
    70
  9
$TILEMODE
 70
     1
  9
$MAXACTVP
 70
    64
  9
$PINSBASE
 10
0.0
 20
0.0
 30
0.0
  9
$PLIMCHECK
 70
     0
  9
$PEXTMIN
 10
1.000000000000000E+20
 20
1.000000000000000E+20
 30
1.000000000000000E+20
  9
$PEXTMAX
 10
-1.000000000000000E+20
 20
-1.000000000000000E+20
 30
-1.000000000000000E+20
  9
$PLIMMIN
 10
0.0
 20
0.0
  9
$PLIMMAX
 10
420.0
 20
297.0
  9
$UNITMODE
 70
     0
  9
$VISRETAIN
 70
     1
  9
$PLINEGEN
 70
     0
  9
$PSLTSCALE
 70
     1
  9
$TREEDEPTH
 70
  3020
  9
$PICKSTYLE
 70
     1
  9
$CMLSTYLE
  2
STANDARD
  9
$CMLJUST
 70
     0
  9
$CMLSCALE
 40
20.0
  9
$SAVEIMAGES
 70
     1
  0
ENDSEC
  0
SECTION
  2
CLASSES
  0
CLASS
  1
ACDBDICTIONARYWDFLT
  2
AcDbDictionaryWithDefault
  3
ObjectDBX Classes
 90
    32768
280
     0
281
     0
  0
CLASS
  1
VISUALSTYLE
  2
AcDbVisualStyle
  3
ObjectDBX Classes
 90
     4095
280
     0
281
     0
  0
CLASS
  1
MATERIAL
  2
AcDbMaterial
  3
ObjectDBX Classes
 90
     1153
280
     0
281
     0
  0
CLASS
  1
SCALE
  2
AcDbScale
  3
ObjectDBX Classes
 90
     1153
280
     0
281
     0
  0
CLASS
  1
TABLESTYLE
  2
AcDbTableStyle
  3
ObjectDBX Classes
 90
     4095
280
     0
281
     0
  0
CLASS
  1
MLEADERSTYLE
  2
AcDbMLeaderStyle
  3
ACDB_MLEADERSTYLE_CLASS
 90
     4095
280
     0
281
     0
  0
CLASS
  1
SUN
  2
AcDbSun
  3
SCENEOE
 90
     1153
280
     0
281
     0
  0
CLASS
  1
DICTIONARYVAR
  2
AcDbDictionaryVar
  3
ObjectDBX Classes
 90
        0
280
     0
281
     0
  0
CLASS
  1
XRECORD
  2
AcDbXrecord
  3
ObjectDBX Classes
 90
    32768
280
     0
281
     0
  0
CLASS
  1
LWPOLYLINE
  2
AcDbPolyline
  3
ObjectDBX Classes
 90
    32768
280
     0
281
     1
  0
CLASS
  1
HATCH
  2
AcDbHatch
  3
ObjectDBX Classes
 90
    32768
280
     0
281
     1
  0
CLASS
  1
ACDBPLACEHOLDER
  2
AcDbPlaceHolder
  3
ObjectDBX Classes
 90
        0
280
     0
281
     0
  0
CLASS
  1
LAYOUT
  2
AcDbLayout
  3
ObjectDBX Classes
 90
        0
280
     0
281
     0
  0
ENDSEC
  0
SECTION
  2
TABLES
  0
TABLE
  2
VPORT
  5
8
330
0
100
AcDbSymbolTable
 70
     1
  0
VPORT
  5
29
330
8
100
AcDbSymbolTableRecord
100
AcDbViewportTableRecord
  2
*ACTIVE
 70
     0
 10
0.0
 20
0.0
 11
1.0
 21
1.0
 12
0.0000000000000568
 22
-9.5
 13
0.0
 23
0.0
 14
10.0
 24
10.0
 15
10.0
 25
10.0
 16
0.0
 26
0.0
 36
1.0
 17
0.0
 27
0.0
 37
0.0
 40
227.46
 41
2.071748878923767
 42
50.0
 43
0.0
 44
0.0
 50
0.0
 51
0.0
 71
     0
 72
   100
 73
     1
 74
     3
 75
     0
 76
     0
 77
     0
 78
     0
  0
ENDTAB
  0
TABLE
  2
LTYPE
  5
5
330
0
100
AcDbSymbolTable
 70
     1
  0
LTYPE
  5
14
330
5
100
AcDbSymbolTableRecord
100
AcDbLinetypeTableRecord
  2
BYBLOCK
 70
     0
  3

 72
    65
 73
     0
 40
0.0
  0
LTYPE
  5
15
330
5
100
AcDbSymbolTableRecord
100
AcDbLinetypeTableRecord
  2
BYLAYER
 70
     0
  3

 72
    65
 73
     0
 40
0.0
  0
LTYPE
  5
16
330
5
100
AcDbSymbolTableRecord
100
AcDbLinetypeTableRecord
  2
CONTINUOUS
 70
     0
  3
Solid line
 72
    65
 73
     0
 40
0.0
  0
ENDTAB
  0
TABLE
  2
LAYER
  5
2
330
0
100
AcDbSymbolTable
 70
     4
  0
LAYER
  5
10
330
2
100
AcDbSymbolTableRecord
100
AcDbLayerTableRecord
  2
0
 70
     0
 62
     7
  6
CONTINUOUS
  0
LAYER
  5
6E
330
2
100
AcDbSymbolTableRecord
100
AcDbLayerTableRecord
  2
THICK
 70
     0
 62
     7
  6
CONTINUOUS
  0
LAYER
  5
6F
330
2
100
AcDbSymbolTableRecord
100
AcDbLayerTableRecord
  2
HIDDEN
 70
     0
 62
     7
  6
CONTINUOUS
  0
LAYER
  5
70
330
2
100
AcDbSymbolTableRecord
100
AcDbLayerTableRecord
  2
HASHLINES
 70
     0
 62
     7
  6
CONTINUOUS
  0
ENDTAB
  0
TABLE
  2
STYLE
  5
3
330
0
100
AcDbSymbolTable
 70
     1
  0
STYLE
  5
11
330
3
100
AcDbSymbolTableRecord
100
AcDbTextStyleTableRecord
  2
STANDARD
 70
     0
 40
0.0
 41
1.0
 50
0.0
 71
     0
 42
2.5
  3
txt
  4

  0
ENDTAB
  0
TABLE
  2
VIEW
  5
6
330
0
100
AcDbSymbolTable
 70
     0
  0
ENDTAB
  0
TABLE
  2
UCS
  5
7
330
0
100
AcDbSymbolTable
 70
     0
  0
ENDTAB
  0
TABLE
  2
APPID
  5
9
330
0
100
AcDbSymbolTable
 70
     3
  0
APPID
  5
12
330
9
100
AcDbSymbolTableRecord
100
AcDbRegAppTableRecord
  2
ACAD
 70
     0
  0
APPID
  5
71
330
9
100
AcDbSymbolTableRecord
100
AcDbRegAppTableRecord
  2
DBPROPERTIES
 70
     0
  0
APPID
  5
28E
330
9
100
AcDbSymbolTableRecord
100
AcDbRegAppTableRecord
  2
ACAD_MLEADERVER
 70
     0
  0
ENDTAB
  0
TABLE
  2
DIMSTYLE
  5
A
330
0
100
AcDbSymbolTable
 70
     1
  0
DIMSTYLE
105
27
330
A
100
AcDbSymbolTableRecord
100
AcDbDimStyleTableRecord
  2
ISO-25
 70
     0
  3

  4

  5

  6

  7

 40
1.0
 41
2.5
 42
0.625
 43
3.75
 44
1.25
 45
0.0
 46
0.0
 47
0.0
 48
0.0
140
2.5
141
2.5
142
0.0
143
0.03937007874016
144
1.0
145
0.0
146
1.0
147
0.625
 71
     0
 72
     0
 73
     0
 74
     0
 75
     0
 76
     0
 77
     1
 78
     8
170
     0
171
     3
172
     1
173
     0
174
     0
175
     0
176
     0
177
     0
178
     0
270
     2
271
     2
272
     2
273
     2
274
     3
340
11
275
     0
280
     0
281
     0
282
     0
283
     0
284
     8
285
     0
286
     0
287
     3
288
     0
  0
ENDTAB
  0
TABLE
  2
BLOCK_RECORD
  5
1
330
0
100
AcDbSymbolTable
 70
     0
  0
BLOCK_RECORD
  5
1F
330
1
100
AcDbSymbolTableRecord
100
AcDbBlockTableRecord
  2
*MODEL_SPACE
  0
BLOCK_RECORD
  5
1B
330
1
100
AcDbSymbolTableRecord
100
AcDbBlockTableRecord
  2
*PAPER_SPACE
  0
ENDTAB
  0
ENDSEC
  0
SECTION
  2
BLOCKS
  0
BLOCK
  5
20
330
1F
100
AcDbEntity
  8
0
100
AcDbBlockBegin
  2
*MODEL_SPACE
 70
     0
 10
0.0
 20
0.0
 30
0.0
  3
*MODEL_SPACE
  1

  0
ENDBLK
  5
21
330
1F
100
AcDbEntity
  8
0
100
AcDbBlockEnd
  0
BLOCK
  5
1C
330
1B
100
AcDbEntity
 67
     1
  8
0
100
AcDbBlockBegin
  2
*PAPER_SPACE
 70
     0
 10
0.0
 20
0.0
 30
0.0
  3
*PAPER_SPACE
  1

  0
ENDBLK
  5
1D
330
1B
100
AcDbEntity
 67
     1
  8
0
100
AcDbBlockEnd
  0
ENDSEC
  0
SECTION
  2
ENTITIES
  0
LINE
  5
72
330
1F
100
AcDbEntity
  8
HIDDEN
100
AcDbLine
 10
-92.40000000000003
 20
24.59999999999999
 30
0.0
 11
-92.40000000000003
 21
-0.0000000000000053
 31
0.0
1001
DBPROPERTIES
1002
{
1000
PbHidd
1002
}
  0
LINE
  5
73
330
1F
100
AcDbEntity
  8
HIDDEN
100
AcDbLine
 10
-92.40000000000003
 20
-0.0000000000000113
 30
0.0
 11
-92.40000000000003
 21
-24.60000000000001
 31
0.0
1001
DBPROPERTIES
1002
{
1000
PbHidd
1002
}
  0
LINE
  5
74
330
1F
100
AcDbEntity
  8
HIDDEN
100
AcDbLine
 10
-175.4468599666426
 20
-61.5
 30
0.0
 11
-175.4468599666426
 21
-0.0000000000000026
 31
0.0
1001
DBPROPERTIES
1002
{
1000
PbHidd
1002
}
  0
LINE
  5
75
330
1F
100
AcDbEntity
  8
HIDDEN
100
AcDbLine
 10
-169.786182617407
 20
0.0000000000000042
 30
0.0
 11
-169.786182617407
 21
-69.06307787036644
 31
0.0
1001
DBPROPERTIES
1002
{
1000
PbHidd
1002
}
  0
LINE
  5
76
330
1F
100
AcDbEntity
  8
THICK
100
AcDbLine
 10
-169.786182617407
 20
-0.0000000000000127
 30
0.0
 11
-169.786182617407
 21
-69.06307787036644
 31
0.0
1001
DBPROPERTIES
1002
{
1000
PbThick
1002
}
  0
LINE
  5
77
330
1F
100
AcDbEntity
  8
THICK
100
AcDbLine
 10
-175.4468599666426
 20
-61.5
 30
0.0
 11
-175.4468599666426
 21
-0.0000000000000026
 31
0.0
1001
DBPROPERTIES
1002
{
1000
PbThick
1002
}
  0
LINE
  5
78
330
1F
100
AcDbEntity
  8
HIDDEN
100
AcDbLine
 10
169.786182617407
 20
0.0000000000000042
 30
0.0
 11
169.786182617407
 21
-69.06307787036653
 31
0.0
1001
DBPROPERTIES
1002
{
1000
PbHidd
1002
}
  0
LINE
  5
79
330
1F
100
AcDbEntity
  8
THICK
100
AcDbLine
 10
169.786182617407
 20
-69.06307787036653
 30
0.0
 11
169.786182617407
 21
-0.0000000000000127
 31
0.0
1001
DBPROPERTIES
1002
{
1000
PbThick
1002
}
  0
LINE
  5
7A
330
1F
100
AcDbEntity
  8
HIDDEN
100
AcDbLine
 10
175.4468599666426
 20
0.0000000000000038
 30
0.0
 11
175.4468599666426
 21
-61.5
 31
0.0
1001
DBPROPERTIES
1002
{
1000
PbHidd
1002
}
  0
LINE
  5
7B
330
1F
100
AcDbEntity
  8
THICK
100
AcDbLine
 10
175.4468599666426
 20
-61.5
 30
0.0
 11
175.4468599666426
 21
0.0000000000000038
 31
0.0
1001
DBPROPERTIES
1002
{
1000
PbThick
1002
}
  0
LINE
  5
7C
330
1F
100
AcDbEntity
  8
THICK
100
AcDbLine
 10
224.38
 20
61.5
 30
0.0
 11
224.38
 21
0.0000000000000038
 31
0.0
1001
DBPROPERTIES
1002
{
1000
PbThick
1002
}
  0
LINE
  5
7D
330
1F
100
AcDbEntity
  8
THICK
100
AcDbLine
 10
175.4468536376953
 20
61.5
 30
0.0
 11
224.3800048828125
 21
61.5
 31
0.0
1001
DBPROPERTIES
1002
{
1000
PbThick
1002
}
  0
LINE
  5
7E
330
1F
100
AcDbEntity
  8
THICK
100
AcDbLine
 10
175.4468599666426
 20
0.0000000000000038
 30
0.0
 11
175.4468599666426
 21
61.5
 31
0.0
1001
DBPROPERTIES
1002
{
1000
PbThick
1002
}
  0
LINE
  5
7F
330
1F
100
AcDbEntity
  8
THICK
100
AcDbLine
 10
175.5599975585938
 20
-61.5
 30
0.0
 11
175.4468536376953
 21
-61.5
 31
0.0
1001
DBPROPERTIES
1002
{
1000
PbThick
1002
}
  0
LINE
  5
80
330
1F
100
AcDbEntity
  8
THICK
100
AcDbLine
 10
184.8
 20
-35.80851853958776
 30
0.0
 11
180.8
 21
-35.80851853958776
 31
0.0
1001
DBPROPERTIES
1002
{
1000
PbThick
1002
}
  0
LINE
  5
81
330
1F
100
AcDbEntity
  8
HIDDEN
100
AcDbLine
 10
180.8
 20
-40.81972562377165
 30
0.0
 11
184.8
 21
-40.81972562377165
 31
0.0
1001
DBPROPERTIES
1002
{
1000
PbHidd
1002
}
  0
LINE
  5
82
330
1F
100
AcDbEntity
  8
HIDDEN
100
AcDbLine
 10
184.8
 20
-55.73374202401988
 30
0.0
 11
180.8
 21
-55.73374202401988
 31
0.0
1001
DBPROPERTIES
1002
{
1000
PbHidd
1002
}
  0
LINE
  5
83
330
1F
100
AcDbEntity
  8
HIDDEN
100
AcDbLine
 10
180.8
 20
-57.4303926505818
 30
0.0
 11
184.8
 21
-57.4303926505818
 31
0.0
1001
DBPROPERTIES
1002
{
1000
PbHidd
1002
}
  0
LINE
  5
84
330
1F
100
AcDbEntity
  8
HIDDEN
100
AcDbLine
 10
184.8
 20
-61.46747107210447
 30
0.0
 11
180.8
 21
-61.46747107210447
 31
0.0
1001
DBPROPERTIES
1002
{
1000
PbHidd
1002
}
  0
LINE
  5
85
330
1F
100
AcDbEntity
  8
THICK
100
AcDbLine
 10
224.3800048828125
 20
-61.5
 30
0.0
 11
184.8000030517578
 21
-61.5
 31
0.0
1001
DBPROPERTIES
1002
{
1000
PbThick
1002
}
  0
LINE
  5
86
330
1F
100
AcDbEntity
  8
THICK
100
AcDbLine
 10
224.38
 20
-61.5
 30
0.0
 11
224.38
 21
0.0000000000000038
 31
0.0
1001
DBPROPERTIES
1002
{
1000
PbThick
1002
}
  0
LINE
  5
87
330
1F
100
AcDbEntity
  8
THICK
100
AcDbLine
 10
-175.4468536376953
 20
-61.5
 30
0.0
 11
-175.5599975585938
 21
-61.5
 31
0.0
1001
DBPROPERTIES
1002
{
1000
PbThick
1002
}
  0
LINE
  5
88
330
1F
100
AcDbEntity
  8
THICK
100
AcDbLine
 10
-175.4468599666426
 20
61.5
 30
0.0
 11
-175.4468599666426
 21
-0.0000000000000026
 31
0.0
1001
DBPROPERTIES
1002
{
1000
PbThick
1002
}
  0
LINE
  5
89
330
1F
100
AcDbEntity
  8
THICK
100
AcDbLine
 10
-224.3800048828125
 20
61.5
 30
0.0
 11
-175.4468536376953
 21
61.5
 31
0.0
1001
DBPROPERTIES
1002
{
1000
PbThick
1002
}
  0
LINE
  5
8A
330
1F
100
AcDbEntity
  8
THICK
100
AcDbLine
 10
-224.38
 20
61.5
 30
0.0
 11
-224.38
 21
-0.000000000000004
 31
0.0
1001
DBPROPERTIES
1002
{
1000
PbThick
1002
}
  0
LINE
  5
8B
330
1F
100
AcDbEntity
  8
THICK
100
AcDbLine
 10
-224.38
 20
-61.5
 30
0.0
 11
-224.38
 21
-0.000000000000004
 31
0.0
1001
DBPROPERTIES
1002
{
1000
PbThick
1002
}
  0
LINE
  5
8C
330
1F
100
AcDbEntity
  8
THICK
100
AcDbLine
 10
-184.8000030517578
 20
-61.5
 30
0.0
 11
-224.3800048828125
 21
-61.5
 31
0.0
1001
DBPROPERTIES
1002
{
1000
PbThick
1002
}
  0
LINE
  5
8D
330
1F
100
AcDbEntity
  8
HIDDEN
100
AcDbLine
 10
-180.8
 20
-61.46747107210447
 30
0.0
 11
-184.8
 21
-61.46747107210447
 31
0.0
1001
DBPROPERTIES
1002
{
1000
PbHidd
1002
}
  0
LINE
  5
8E
330
1F
100
AcDbEntity
  8
HIDDEN
100
AcDbLine
 10
-184.8
 20
-57.4303926505818
 30
0.0
 11
-180.8
 21
-57.4303926505818
 31
0.0
1001
DBPROPERTIES
1002
{
1000
PbHidd
1002
}
  0
LINE
  5
8F
330
1F
100
AcDbEntity
  8
HIDDEN
100
AcDbLine
 10
-180.8
 20
-55.73374202401988
 30
0.0
 11
-184.8
 21
-55.73374202401988
 31
0.0
1001
DBPROPERTIES
1002
{
1000
PbHidd
1002
}
  0
LINE
  5
90
330
1F
100
AcDbEntity
  8
HIDDEN
100
AcDbLine
 10
-184.8
 20
-40.81972562377165
 30
0.0
 11
-180.8
 21
-40.81972562377165
 31
0.0
1001
DBPROPERTIES
1002
{
1000
PbHidd
1002
}
  0
LINE
  5
91
330
1F
100
AcDbEntity
  8
THICK
100
AcDbLine
 10
-180.8
 20
-35.80851853958776
 30
0.0
 11
-184.8
 21
-35.80851853958776
 31
0.0
1001
DBPROPERTIES
1002
{
1000
PbThick
1002
}
  0
LINE
  5
92
330
1F
100
AcDbEntity
  8
HIDDEN
100
AcDbLine
 10
163.6225457268081
 20
0.0000000000000036
 30
0.0
 11
163.6225457268081
 21
59.5
 31
0.0
1001
DBPROPERTIES
1002
{
1000
PbHidd
1002
}
  0
LINE
  5
93
330
1F
100
AcDbEntity
  8
HIDDEN
100
AcDbLine
 10
231.0
 20
59.5
 30
0.0
 11
163.6225433349609
 21
59.5
 31
0.0
1001
DBPROPERTIES
1002
{
1000
PbHidd
1002
}
  0
LINE
  5
94
330
1F
100
AcDbEntity
  8
HIDDEN
100
AcDbLine
 10
163.6225433349609
 20
-59.5
 30
0.0
 11
231.0
 21
-59.5
 31
0.0
1001
DBPROPERTIES
1002
{
1000
PbHidd
1002
}
  0
LINE
  5
95
330
1F
100
AcDbEntity
  8
HIDDEN
100
AcDbLine
 10
163.6225457268081
 20
-59.5
 30
0.0
 11
163.6225457268081
 21
0.0000000000000036
 31
0.0
1001
DBPROPERTIES
1002
{
1000
PbHidd
1002
}
  0
LINE
  5
96
330
1F
100
AcDbEntity
  8
HIDDEN
100
AcDbLine
 10
-163.6225457268081
 20
-59.49999999999998
 30
0.0
 11
-163.6225457268081
 21
-0.00000000000001
 31
0.0
1001
DBPROPERTIES
1002
{
1000
PbHidd
1002
}
  0
LINE
  5
97
330
1F
100
AcDbEntity
  8
HIDDEN
100
AcDbLine
 10
-231.0
 20
-59.49999999999999
 30
0.0
 11
-163.6225433349609
 21
-59.5
 31
0.0
1001
DBPROPERTIES
1002
{
1000
PbHidd
1002
}
  0
LINE
  5
98
330
1F
100
AcDbEntity
  8
HIDDEN
100
AcDbLine
 10
-163.6225433349609
 20
59.5
 30
0.0
 11
-231.0
 21
59.50000000000001
 31
0.0
1001
DBPROPERTIES
1002
{
1000
PbHidd
1002
}
  0
LINE
  5
99
330
1F
100
AcDbEntity
  8
HIDDEN
100
AcDbLine
 10
-163.6225457268081
 20
59.50000000000002
 30
0.0
 11
-163.6225457268081
 21
-0.00000000000001
 31
0.0
1001
DBPROPERTIES
1002
{
1000
PbHidd
1002
}
  0
LINE
  5
9A
330
1F
100
AcDbEntity
  8
THICK
100
AcDbLine
 10
231.0
 20
-61.5
 30
0.0
 11
231.0
 21
61.5
 31
0.0
1001
DBPROPERTIES
1002
{
1000
PbThick
1002
}
  0
LINE
  5
9B
330
1F
100
AcDbEntity
  8
THICK
100
AcDbLine
 10
228.3800048828125
 20
61.5
 30
0.0
 11
231.0
 21
61.5
 31
0.0
1001
DBPROPERTIES
1002
{
1000
PbThick
1002
}
  0
LINE
  5
9C
330
1F
100
AcDbEntity
  8
THICK
100
AcDbLine
 10
228.38
 20
0.0000000000000038
 30
0.0
 11
228.38
 21
61.5
 31
0.0
1001
DBPROPERTIES
1002
{
1000
PbThick
1002
}
  0
LINE
  5
9D
330
1F
100
AcDbEntity
  8
THICK
100
AcDbLine
 10
228.38
 20
0.0000000000000038
 30
0.0
 11
228.38
 21
-61.5
 31
0.0
1001
DBPROPERTIES
1002
{
1000
PbThick
1002
}
  0
LINE
  5
9E
330
1F
100
AcDbEntity
  8
THICK
100
AcDbLine
 10
231.0
 20
-61.5
 30
0.0
 11
228.3800048828125
 21
-61.5
 31
0.0
1001
DBPROPERTIES
1002
{
1000
PbThick
1002
}
  0
LINE
  5
9F
330
1F
100
AcDbEntity
  8
HIDDEN
100
AcDbLine
 10
224.38
 20
0.0000000000000038
 30
0.0
 11
224.38
 21
-61.5
 31
0.0
1001
DBPROPERTIES
1002
{
1000
PbHidd
1002
}
  0
LINE
  5
A0
330
1F
100
AcDbEntity
  8
HIDDEN
100
AcDbLine
 10
228.38
 20
-61.5
 30
0.0
 11
228.38
 21
0.0000000000000038
 31
0.0
1001
DBPROPERTIES
1002
{
1000
PbHidd
1002
}
  0
LINE
  5
A1
330
1F
100
AcDbEntity
  8
THICK
100
AcDbLine
 10
-231.0
 20
61.50000000000001
 30
0.0
 11
-231.0
 21
-61.49999999999999
 31
0.0
1001
DBPROPERTIES
1002
{
1000
PbThick
1002
}
  0
LINE
  5
A2
330
1F
100
AcDbEntity
  8
THICK
100
AcDbLine
 10
-228.3800048828125
 20
-61.5
 30
0.0
 11
-231.0
 21
-61.5
 31
0.0
1001
DBPROPERTIES
1002
{
1000
PbThick
1002
}
  0
LINE
  5
A3
330
1F
100
AcDbEntity
  8
THICK
100
AcDbLine
 10
-228.38
 20
-61.5
 30
0.0
 11
-228.38
 21
-0.0000000000000035
 31
0.0
1001
DBPROPERTIES
1002
{
1000
PbThick
1002
}
  0
LINE
  5
A4
330
1F
100
AcDbEntity
  8
THICK
100
AcDbLine
 10
-228.38
 20
-0.0000000000000035
 30
0.0
 11
-228.38
 21
61.5
 31
0.0
1001
DBPROPERTIES
1002
{
1000
PbThick
1002
}
  0
LINE
  5
A5
330
1F
100
AcDbEntity
  8
THICK
100
AcDbLine
 10
-231.0
 20
61.5
 30
0.0
 11
-228.3800048828125
 21
61.5
 31
0.0
1001
DBPROPERTIES
1002
{
1000
PbThick
1002
}
  0
LINE
  5
A6
330
1F
100
AcDbEntity
  8
HIDDEN
100
AcDbLine
 10
-228.38
 20
-0.0000000000000035
 30
0.0
 11
-228.38
 21
-61.5
 31
0.0
1001
DBPROPERTIES
1002
{
1000
PbHidd
1002
}
  0
LINE
  5
A7
330
1F
100
AcDbEntity
  8
HIDDEN
100
AcDbLine
 10
-224.38
 20
-61.5
 30
0.0
 11
-224.38
 21
-0.000000000000004
 31
0.0
1001
DBPROPERTIES
1002
{
1000
PbHidd
1002
}
  0
ARC
  5
A8
330
1F
100
AcDbEntity
  8
THICK
100
AcDbCircle
 10
0.000000000000008
 20
0.0
 30
0.0
 40
37.56786511661675
100
AcDbArc
 50
270.0000187239684
 51
89.99998127603165
1001
DBPROPERTIES
1002
{
1000
PbThick
1002
}
  0
ARC
  5
A9
330
1F
100
AcDbEntity
  8
THICK
100
AcDbCircle
 10
0.0000000000000069
 20
0.0
 30
0.0
 40
55.44
100
AcDbArc
 50
270.0000187239684
 51
0.0
1001
DBPROPERTIES
1002
{
1000
PbThick
1002
}
  0
ARC
  5
AA
330
1F
100
AcDbEntity
  8
THICK
100
AcDbCircle
 10
0.0000000000000069
 20
0.0
 30
0.0
 40
55.44
100
AcDbArc
 50
0.0
 51
89.99998127603165
1001
DBPROPERTIES
1002
{
1000
PbThick
1002
}
  0
ELLIPSE
  5
AB
330
1F
100
AcDbEntity
  8
THICK
100
AcDbEllipse
 10
-40.24730769230768
 20
0.0000000000000025
 30
0.0
 11
-9.212021964307831E-16
 21
-15.04487043620874
 31
0.0
210
0.0
220
0.0
230
1.0
 40
0.8320502943378438
 41
-3.141592653589793
 42
-2.509467827383479
1001
DBPROPERTIES
1002
{
1000
PbThick
1002
}
  0
ARC
  5
AC
330
1F
100
AcDbEntity
  8
THICK
100
AcDbCircle
 10
-36.96
 20
0.0000000000000023
 30
0.0
 40
16.17
100
AcDbArc
 50
131.3543560551891
 51
228.6456439448109
1001
DBPROPERTIES
1002
{
1000
PbThick
1002
}
  0
ELLIPSE
  5
AD
330
1F
100
AcDbEntity
  8
THICK
100
AcDbEllipse
 10
-40.24730769230768
 20
0.0000000000000025
 30
0.0
 11
-9.212021964307831E-16
 21
-15.04487043620874
 31
0.0
210
0.0
220
0.0
230
1.0
 40
0.8320502943378438
 41
-0.6321248262063139
 42
3.141592653589793
1001
DBPROPERTIES
1002
{
1000
PbThick
1002
}
  0
ARC
  5
AE
330
1F
100
AcDbEntity
  8
THICK
100
AcDbCircle
 10
0.0000000000000069
 20
0.0
 30
0.0
 40
55.44
100
AcDbArc
 50
180.0000198478428
 51
270.0000187239684
1001
DBPROPERTIES
1002
{
1000
PbThick
1002
}
  0
LINE
  5
AF
330
1F
100
AcDbEntity
  8
HIDDEN
100
AcDbLine
 10
163.6225457268081
 20
0.0000000000000036
 30
0.0
 11
163.6225457268081
 21
-59.5
 31
0.0
1001
DBPROPERTIES
1002
{
1000
PbHidd
1002
}
  0
LINE
  5
B0
330
1F
100
AcDbEntity
  8
HIDDEN
100
AcDbLine
 10
-163.6225457268081
 20
-59.49999999999998
 30
0.0
 11
-163.6225457268081
 21
-0.00000000000001
 31
0.0
1001
DBPROPERTIES
1002
{
1000
PbHidd
1002
}
  0
LINE
  5
B1
330
1F
100
AcDbEntity
  8
HIDDEN
100
AcDbLine
 10
-163.6225457268081
 20
-0.00000000000001
 30
0.0
 11
-163.6225457268081
 21
59.50000000000002
 31
0.0
1001
DBPROPERTIES
1002
{
1000
PbHidd
1002
}
  0
LINE
  5
B2
330
1F
100
AcDbEntity
  8
HIDDEN
100
AcDbLine
 10
163.6225457268081
 20
59.5
 30
0.0
 11
163.6225457268081
 21
0.0000000000000036
 31
0.0
1001
DBPROPERTIES
1002
{
1000
PbHidd
1002
}
  0
ARC
  5
B3
330
1F
100
AcDbEntity
  8
THICK
100
AcDbCircle
 10
0.0000000000000069
 20
0.0
 30
0.0
 40
55.44
100
AcDbArc
 50
89.99998127603165
 51
180.0000198478428
1001
DBPROPERTIES
1002
{
1000
PbThick
1002
}
  0
ELLIPSE
  5
B4
330
1F
100
AcDbEntity
  8
HIDDEN
100
AcDbEllipse
 10
-40.24730769230768
 20
0.0000000000000025
 30
0.0
 11
-9.212021964307831E-16
 21
-15.04487043620874
 31
0.0
210
0.0
220
0.0
230
1.0
 40
0.8320502943378438
 41
-2.509467827383479
 42
-0.6321248262063139
1001
DBPROPERTIES
1002
{
1000
PbHidd
1002
}
  0
ARC
  5
B5
330
1F
100
AcDbEntity
  8
THICK
100
AcDbCircle
 10
-46.20000000000001
 20
0.0000000000000028
 30
0.0
 40
18.48
100
AcDbArc
 50
308.5699332103489
 51
51.43006678965101
1001
DBPROPERTIES
1002
{
1000
PbThick
1002
}
  0
LINE
  5
B6
330
1F
100
AcDbEntity
  8
THICK
100
AcDbLine
 10
-34.67830657958984
 20
-14.44852828979492
 30
0.0
 11
-35.14988327026367
 21
-14.81230354309082
 31
0.0
1001
DBPROPERTIES
1002
{
1000
PbThick
1002
}
  0
LINE
  5
B7
330
1F
100
AcDbEntity
  8
THICK
100
AcDbLine
 10
-35.14988327026367
 20
-14.81230354309082
 30
0.0
 11
-35.64241409301758
 21
-15.16710662841797
 31
0.0
1001
DBPROPERTIES
1002
{
1000
PbThick
1002
}
  0
LINE
  5
B8
330
1F
100
AcDbEntity
  8
THICK
100
AcDbLine
 10
-35.64241409301758
 20
-15.16710662841797
 30
0.0
 11
-36.14888000488281
 21
-15.50691604614258
 31
0.0
1001
DBPROPERTIES
1002
{
1000
PbThick
1002
}
  0
LINE
  5
B9
330
1F
100
AcDbEntity
  8
THICK
100
AcDbLine
 10
-36.14888000488281
 20
-15.50691604614258
 30
0.0
 11
-36.66193389892578
 21
-15.82661914825439
 31
0.0
1001
DBPROPERTIES
1002
{
1000
PbThick
1002
}
  0
LINE
  5
BA
330
1F
100
AcDbEntity
  8
THICK
100
AcDbLine
 10
-36.66193389892578
 20
-15.82661914825439
 30
0.0
 11
-37.17361068725586
 21
-16.12206840515137
 31
0.0
1001
DBPROPERTIES
1002
{
1000
PbThick
1002
}
  0
LINE
  5
BB
330
1F
100
AcDbEntity
  8
THICK
100
AcDbLine
 10
-37.17361068725586
 20
-16.12206840515137
 30
0.0
 11
-37.67555236816406
 21
-16.39010238647461
 31
0.0
1001
DBPROPERTIES
1002
{
1000
PbThick
1002
}
  0
LINE
  5
BC
330
1F
100
AcDbEntity
  8
THICK
100
AcDbLine
 10
-37.67555236816406
 20
-16.39010238647461
 30
0.0
 11
-38.1721076965332
 21
-16.63465309143066
 31
0.0
1001
DBPROPERTIES
1002
{
1000
PbThick
1002
}
  0
LINE
  5
BD
330
1F
100
AcDbEntity
  8
THICK
100
AcDbLine
 10
-38.1721076965332
 20
-16.63465309143066
 30
0.0
 11
-38.69100952148438
 21
-16.86894989013672
 31
0.0
1001
DBPROPERTIES
1002
{
1000
PbThick
1002
}
  0
LINE
  5
BE
330
1F
100
AcDbEntity
  8
THICK
100
AcDbLine
 10
-38.69100952148438
 20
-16.86894989013672
 30
0.0
 11
-39.22621917724609
 21
-17.08817863464355
 31
0.0
1001
DBPROPERTIES
1002
{
1000
PbThick
1002
}
  0
LINE
  5
BF
330
1F
100
AcDbEntity
  8
THICK
100
AcDbLine
 10
-39.22621917724609
 20
-17.08817863464355
 30
0.0
 11
-39.7694206237793
 21
-17.28783226013184
 31
0.0
1001
DBPROPERTIES
1002
{
1000
PbThick
1002
}
  0
LINE
  5
C0
330
1F
100
AcDbEntity
  8
THICK
100
AcDbLine
 10
-39.7694206237793
 20
-17.28783226013184
 30
0.0
 11
-40.31234741210938
 21
-17.46442985534668
 31
0.0
1001
DBPROPERTIES
1002
{
1000
PbThick
1002
}
  0
LINE
  5
C1
330
1F
100
AcDbEntity
  8
THICK
100
AcDbLine
 10
-40.31234741210938
 20
-17.46442985534668
 30
0.0
 11
-40.84664916992188
 21
-17.61593437194824
 31
0.0
1001
DBPROPERTIES
1002
{
1000
PbThick
1002
}
  0
LINE
  5
C2
330
1F
100
AcDbEntity
  8
THICK
100
AcDbLine
 10
-40.84664916992188
 20
-17.61593437194824
 30
0.0
 11
-41.36395645141602
 21
-17.74138641357422
 31
0.0
1001
DBPROPERTIES
1002
{
1000
PbThick
1002
}
  0
LINE
  5
C3
330
1F
100
AcDbEntity
  8
THICK
100
AcDbLine
 10
-41.36395645141602
 20
-17.74138641357422
 30
0.0
 11
-41.86398696899414
 21
-17.84260559082031
 31
0.0
1001
DBPROPERTIES
1002
{
1000
PbThick
1002
}
  0
LINE
  5
C4
330
1F
100
AcDbEntity
  8
THICK
100
AcDbLine
 10
-41.86398696899414
 20
-17.84260559082031
 30
0.0
 11
-42.37656021118164
 21
-17.92561149597168
 31
0.0
1001
DBPROPERTIES
1002
{
1000
PbThick
1002
}
  0
LINE
  5
C5
330
1F
100
AcDbEntity
  8
THICK
100
AcDbLine
 10
-42.37656021118164
 20
-17.92561149597168
 30
0.0
 11
-42.89875411987305
 21
-17.98806762695312
 31
0.0
1001
DBPROPERTIES
1002
{
1000
PbThick
1002
}
  0
LINE
  5
C6
330
1F
100
AcDbEntity
  8
THICK
100
AcDbLine
 10
-42.89875411987305
 20
-17.98806762695312
 30
0.0
 11
-43.42305374145508
 21
-18.02780151367188
 31
0.0
1001
DBPROPERTIES
1002
{
1000
PbThick
1002
}
  0
LINE
  5
C7
330
1F
100
AcDbEntity
  8
THICK
100
AcDbLine
 10
-43.42305374145508
 20
-18.02780151367188
 30
0.0
 11
-43.94225692749023
 21
-18.04363632202148
 31
0.0
1001
DBPROPERTIES
1002
{
1000
PbThick
1002
}
  0
LINE
  5
C8
330
1F
100
AcDbEntity
  8
THICK
100
AcDbLine
 10
-43.94225692749023
 20
-18.04363632202148
 30
0.0
 11
-44.44962310791016
 21
-18.03576850891113
 31
0.0
1001
DBPROPERTIES
1002
{
1000
PbThick
1002
}
  0
LINE
  5
C9
330
1F
100
AcDbEntity
  8
THICK
100
AcDbLine
 10
-44.44962310791016
 20
-18.03576850891113
 30
0.0
 11
-44.93858337402344
 21
-18.00530815124512
 31
0.0
1001
DBPROPERTIES
1002
{
1000
PbThick
1002
}
  0
LINE
  5
CA
330
1F
100
AcDbEntity
  8
THICK
100
AcDbLine
 10
-44.93858337402344
 20
-18.00530815124512
 30
0.0
 11
-45.40303421020508
 21
-17.95475769042969
 31
0.0
1001
DBPROPERTIES
1002
{
1000
PbThick
1002
}
  0
LINE
  5
CB
330
1F
100
AcDbEntity
  8
THICK
100
AcDbLine
 10
-45.40303421020508
 20
-17.95475769042969
 30
0.0
 11
-45.85662460327148
 21
-17.88390731811523
 31
0.0
1001
DBPROPERTIES
1002
{
1000
PbThick
1002
}
  0
LINE
  5
CC
330
1F
100
AcDbEntity
  8
THICK
100
AcDbLine
 10
-45.85662460327148
 20
-17.88390731811523
 30
0.0
 11
-46.3157844543457
 21
-17.78959655761719
 31
0.0
1001
DBPROPERTIES
1002
{
1000
PbThick
1002
}
  0
LINE
  5
CD
330
1F
100
AcDbEntity
  8
THICK
100
AcDbLine
 10
-46.3157844543457
 20
-17.78959655761719
 30
0.0
 11
-46.7747688293457
 21
-17.67109489440918
 31
0.0
1001
DBPROPERTIES
1002
{
1000
PbThick
1002
}
  0
LINE
  5
CE
330
1F
100
AcDbEntity
  8
THICK
100
AcDbLine
 10
-46.7747688293457
 20
-17.67109489440918
 30
0.0
 11
-47.2283935546875
 21
-17.5288200378418
 31
0.0
1001
DBPROPERTIES
1002
{
1000
PbThick
1002
}
  0
LINE
  5
CF
330
1F
100
AcDbEntity
  8
THICK
100
AcDbLine
 10
-47.2283935546875
 20
-17.5288200378418
 30
0.0
 11
-47.67181015014648
 21
-17.36376762390137
 31
0.0
1001
DBPROPERTIES
1002
{
1000
PbThick
1002
}
  0
LINE
  5
D0
330
1F
100
AcDbEntity
  8
THICK
100
AcDbLine
 10
-47.67181015014648
 20
-17.36376762390137
 30
0.0
 11
-48.10081100463867
 21
-17.17792510986328
 31
0.0
1001
DBPROPERTIES
1002
{
1000
PbThick
1002
}
  0
LINE
  5
D1
330
1F
100
AcDbEntity
  8
THICK
100
AcDbLine
 10
-48.10081100463867
 20
-17.17792510986328
 30
0.0
 11
-48.5114631652832
 21
-16.97402763366699
 31
0.0
1001
DBPROPERTIES
1002
{
1000
PbThick
1002
}
  0
LINE
  5
D2
330
1F
100
AcDbEntity
  8
THICK
100
AcDbLine
 10
-48.5114631652832
 20
-16.97402763366699
 30
0.0
 11
-48.90028381347656
 21
-16.75562858581543
 31
0.0
1001
DBPROPERTIES
1002
{
1000
PbThick
1002
}
  0
LINE
  5
D3
330
1F
100
AcDbEntity
  8
THICK
100
AcDbLine
 10
-48.90028381347656
 20
-16.75562858581543
 30
0.0
 11
-49.26578903198242
 21
-16.52604675292969
 31
0.0
1001
DBPROPERTIES
1002
{
1000
PbThick
1002
}
  0
LINE
  5
D4
330
1F
100
AcDbEntity
  8
THICK
100
AcDbLine
 10
-49.26578903198242
 20
-16.52604675292969
 30
0.0
 11
-49.6251106262207
 21
-16.27532768249512
 31
0.0
1001
DBPROPERTIES
1002
{
1000
PbThick
1002
}
  0
LINE
  5
D5
330
1F
100
AcDbEntity
  8
THICK
100
AcDbLine
 10
-49.6251106262207
 20
-16.27532768249512
 30
0.0
 11
-49.98123168945312
 21
-16.00044631958008
 31
0.0
1001
DBPROPERTIES
1002
{
1000
PbThick
1002
}
  0
LINE
  5
D6
330
1F
100
AcDbEntity
  8
THICK
100
AcDbLine
 10
-49.98123168945312
 20
-16.00044631958008
 30
0.0
 11
-50.33098602294922
 21
-15.7022066116333
 31
0.0
1001
DBPROPERTIES
1002
{
1000
PbThick
1002
}
  0
LINE
  5
D7
330
1F
100
AcDbEntity
  8
THICK
100
AcDbLine
 10
-50.33098602294922
 20
-15.7022066116333
 30
0.0
 11
-50.6717414855957
 21
-15.3820858001709
 31
0.0
1001
DBPROPERTIES
1002
{
1000
PbThick
1002
}
  0
LINE
  5
D8
330
1F
100
AcDbEntity
  8
THICK
100
AcDbLine
 10
-50.6717414855957
 20
-15.3820858001709
 30
0.0
 11
-51.00121307373047
 21
-15.04202556610107
 31
0.0
1001
DBPROPERTIES
1002
{
1000
PbThick
1002
}
  0
LINE
  5
D9
330
1F
100
AcDbEntity
  8
THICK
100
AcDbLine
 10
-51.00121307373047
 20
-15.04202556610107
 30
0.0
 11
-51.31730270385742
 21
-14.68409061431885
 31
0.0
1001
DBPROPERTIES
1002
{
1000
PbThick
1002
}
  0
LINE
  5
DA
330
1F
100
AcDbEntity
  8
THICK
100
AcDbLine
 10
-51.31730270385742
 20
-14.68409061431885
 30
0.0
 11
-51.61849975585938
 21
-14.31107521057129
 31
0.0
1001
DBPROPERTIES
1002
{
1000
PbThick
1002
}
  0
LINE
  5
DB
330
1F
100
AcDbEntity
  8
THICK
100
AcDbLine
 10
-51.61849975585938
 20
-14.31107521057129
 30
0.0
 11
-51.90339660644531
 21
-13.92605400085449
 31
0.0
1001
DBPROPERTIES
1002
{
1000
PbThick
1002
}
  0
LINE
  5
DC
330
1F
100
AcDbEntity
  8
THICK
100
AcDbLine
 10
-51.90339660644531
 20
-13.92605400085449
 30
0.0
 11
-52.17083358764648
 21
-13.53243064880371
 31
0.0
1001
DBPROPERTIES
1002
{
1000
PbThick
1002
}
  0
LINE
  5
DD
330
1F
100
AcDbEntity
  8
THICK
100
AcDbLine
 10
-52.17083358764648
 20
-13.53243064880371
 30
0.0
 11
-52.42010116577148
 21
-13.13422584533691
 31
0.0
1001
DBPROPERTIES
1002
{
1000
PbThick
1002
}
  0
LINE
  5
DE
330
1F
100
AcDbEntity
  8
THICK
100
AcDbLine
 10
-52.42010116577148
 20
-13.13422584533691
 30
0.0
 11
-52.65358352661133
 21
-12.73006248474121
 31
0.0
1001
DBPROPERTIES
1002
{
1000
PbThick
1002
}
  0
LINE
  5
DF
330
1F
100
AcDbEntity
  8
THICK
100
AcDbLine
 10
-52.65358352661133
 20
-12.73006248474121
 30
0.0
 11
-52.88371276855469
 21
-12.29837036132812
 31
0.0
1001
DBPROPERTIES
1002
{
1000
PbThick
1002
}
  0
LINE
  5
E0
330
1F
100
AcDbEntity
  8
THICK
100
AcDbLine
 10
-52.88371276855469
 20
-12.29837036132812
 30
0.0
 11
-53.10812759399414
 21
-11.840895652771
 31
0.0
1001
DBPROPERTIES
1002
{
1000
PbThick
1002
}
  0
LINE
  5
E1
330
1F
100
AcDbEntity
  8
THICK
100
AcDbLine
 10
-53.10812759399414
 20
-11.840895652771
 30
0.0
 11
-53.32323837280273
 21
-11.36358547210693
 31
0.0
1001
DBPROPERTIES
1002
{
1000
PbThick
1002
}
  0
LINE
  5
E2
330
1F
100
AcDbEntity
  8
THICK
100
AcDbLine
 10
-53.32323837280273
 20
-11.36358547210693
 30
0.0
 11
-53.52605056762695
 21
-10.87293529510498
 31
0.0
1001
DBPROPERTIES
1002
{
1000
PbThick
1002
}
  0
LINE
  5
E3
330
1F
100
AcDbEntity
  8
THICK
100
AcDbLine
 10
-53.52605056762695
 20
-10.87293529510498
 30
0.0
 11
-53.71437835693359
 21
-10.37624645233154
 31
0.0
1001
DBPROPERTIES
1002
{
1000
PbThick
1002
}
  0
LINE
  5
E4
330
1F
100
AcDbEntity
  8
THICK
100
AcDbLine
 10
-53.71437835693359
 20
-10.37624645233154
 30
0.0
 11
-53.88649749755859
 21
-9.881378173828125
 31
0.0
1001
DBPROPERTIES
1002
{
1000
PbThick
1002
}
  0
LINE
  5
E5
330
1F
100
AcDbEntity
  8
THICK
100
AcDbLine
 10
-53.88649749755859
 20
-9.881378173828125
 30
0.0
 11
-54.04204559326172
 21
-9.39453411102295
 31
0.0
1001
DBPROPERTIES
1002
{
1000
PbThick
1002
}
  0
LINE
  5
E6
330
1F
100
AcDbEntity
  8
THICK
100
AcDbLine
 10
-54.04204559326172
 20
-9.39453411102295
 30
0.0
 11
-54.19216918945312
 21
-8.881746292114258
 31
0.0
1001
DBPROPERTIES
1002
{
1000
PbThick
1002
}
  0
LINE
  5
E7
330
1F
100
AcDbEntity
  8
THICK
100
AcDbLine
 10
-54.19216918945312
 20
-8.881746292114258
 30
0.0
 11
-54.33692169189453
 21
-8.34074878692627
 31
0.0
1001
DBPROPERTIES
1002
{
1000
PbThick
1002
}
  0
LINE
  5
E8
330
1F
100
AcDbEntity
  8
THICK
100
AcDbLine
 10
-54.33692169189453
 20
-8.34074878692627
 30
0.0
 11
-54.47122955322266
 21
-7.786833763122559
 31
0.0
1001
DBPROPERTIES
1002
{
1000
PbThick
1002
}
  0
LINE
  5
E9
330
1F
100
AcDbEntity
  8
THICK
100
AcDbLine
 10
-54.47122955322266
 20
-7.786833763122559
 30
0.0
 11
-54.59198760986328
 21
-7.236891269683838
 31
0.0
1001
DBPROPERTIES
1002
{
1000
PbThick
1002
}
  0
LINE
  5
EA
330
1F
100
AcDbEntity
  8
THICK
100
AcDbLine
 10
-54.59198760986328
 20
-7.236891269683838
 30
0.0
 11
-54.6973991394043
 21
-6.706371784210205
 31
0.0
1001
DBPROPERTIES
1002
{
1000
PbThick
1002
}
  0
LINE
  5
EB
330
1F
100
AcDbEntity
  8
THICK
100
AcDbLine
 10
-54.6973991394043
 20
-6.706371784210205
 30
0.0
 11
-54.79376983642578
 21
-6.167952060699463
 31
0.0
1001
DBPROPERTIES
1002
{
1000
PbThick
1002
}
  0
LINE
  5
EC
330
1F
100
AcDbEntity
  8
THICK
100
AcDbLine
 10
-54.79376983642578
 20
-6.167952060699463
 30
0.0
 11
-54.88312530517578
 21
-5.610540866851807
 31
0.0
1001
DBPROPERTIES
1002
{
1000
PbThick
1002
}
  0
LINE
  5
ED
330
1F
100
AcDbEntity
  8
THICK
100
AcDbLine
 10
-54.88312530517578
 20
-5.610540866851807
 30
0.0
 11
-54.96451950073242
 21
-5.03722095489502
 31
0.0
1001
DBPROPERTIES
1002
{
1000
PbThick
1002
}
  0
LINE
  5
EE
330
1F
100
AcDbEntity
  8
THICK
100
AcDbLine
 10
-54.96451950073242
 20
-5.03722095489502
 30
0.0
 11
-55.03724670410156
 21
-4.451193809509277
 31
0.0
1001
DBPROPERTIES
1002
{
1000
PbThick
1002
}
  0
LINE
  5
EF
330
1F
100
AcDbEntity
  8
THICK
100
AcDbLine
 10
-55.03724670410156
 20
-4.451193809509277
 30
0.0
 11
-55.10090255737305
 21
-3.855853080749512
 31
0.0
1001
DBPROPERTIES
1002
{
1000
PbThick
1002
}
  0
LINE
  5
F0
330
1F
100
AcDbEntity
  8
THICK
100
AcDbLine
 10
-55.10090255737305
 20
-3.855853080749512
 30
0.0
 11
-55.15512466430664
 21
-3.254600524902344
 31
0.0
1001
DBPROPERTIES
1002
{
1000
PbThick
1002
}
  0
LINE
  5
F1
330
1F
100
AcDbEntity
  8
THICK
100
AcDbLine
 10
-55.15512466430664
 20
-3.254600524902344
 30
0.0
 11
-55.19975662231445
 21
-2.650819540023804
 31
0.0
1001
DBPROPERTIES
1002
{
1000
PbThick
1002
}
  0
LINE
  5
F2
330
1F
100
AcDbEntity
  8
THICK
100
AcDbLine
 10
-55.19975662231445
 20
-2.650819540023804
 30
0.0
 11
-55.23489379882812
 21
-2.048106908798218
 31
0.0
1001
DBPROPERTIES
1002
{
1000
PbThick
1002
}
  0
LINE
  5
F3
330
1F
100
AcDbEntity
  8
THICK
100
AcDbLine
 10
-55.23489379882812
 20
-2.048106908798218
 30
0.0
 11
-55.26063537597656
 21
-1.450101256370544
 31
0.0
1001
DBPROPERTIES
1002
{
1000
PbThick
1002
}
  0
LINE
  5
F4
330
1F
100
AcDbEntity
  8
THICK
100
AcDbLine
 10
-55.26063537597656
 20
-1.450101256370544
 30
0.0
 11
-55.27728652954102
 21
-0.8604897260665894
 31
0.0
1001
DBPROPERTIES
1002
{
1000
PbThick
1002
}
  0
LINE
  5
F5
330
1F
100
AcDbEntity
  8
THICK
100
AcDbLine
 10
-55.27728652954102
 20
-0.8604897260665894
 30
0.0
 11
-55.28536224365234
 21
-0.2830152809619904
 31
0.0
1001
DBPROPERTIES
1002
{
1000
PbThick
1002
}
  0
LINE
  5
F6
330
1F
100
AcDbEntity
  8
THICK
100
AcDbLine
 10
-55.28536224365234
 20
-0.2830152809619904
 30
0.0
 11
-55.28536224365234
 21
0.2830152809619904
 31
0.0
1001
DBPROPERTIES
1002
{
1000
PbThick
1002
}
  0
LINE
  5
F7
330
1F
100
AcDbEntity
  8
THICK
100
AcDbLine
 10
-55.28536224365234
 20
0.2830152809619904
 30
0.0
 11
-55.27728652954102
 21
0.8604897260665894
 31
0.0
1001
DBPROPERTIES
1002
{
1000
PbThick
1002
}
  0
LINE
  5
F8
330
1F
100
AcDbEntity
  8
THICK
100
AcDbLine
 10
-55.27728652954102
 20
0.8604897260665894
 30
0.0
 11
-55.26063537597656
 21
1.450101256370544
 31
0.0
1001
DBPROPERTIES
1002
{
1000
PbThick
1002
}
  0
LINE
  5
F9
330
1F
100
AcDbEntity
  8
THICK
100
AcDbLine
 10
-55.26063537597656
 20
1.450101256370544
 30
0.0
 11
-55.23489379882812
 21
2.048106908798218
 31
0.0
1001
DBPROPERTIES
1002
{
1000
PbThick
1002
}
  0
LINE
  5
FA
330
1F
100
AcDbEntity
  8
THICK
100
AcDbLine
 10
-55.23489379882812
 20
2.048106908798218
 30
0.0
 11
-55.19975662231445
 21
2.650819540023804
 31
0.0
1001
DBPROPERTIES
1002
{
1000
PbThick
1002
}
  0
LINE
  5
FB
330
1F
100
AcDbEntity
  8
THICK
100
AcDbLine
 10
-55.19975662231445
 20
2.650819540023804
 30
0.0
 11
-55.15512466430664
 21
3.254600524902344
 31
0.0
1001
DBPROPERTIES
1002
{
1000
PbThick
1002
}
  0
LINE
  5
FC
330
1F
100
AcDbEntity
  8
THICK
100
AcDbLine
 10
-55.15512466430664
 20
3.254600524902344
 30
0.0
 11
-55.10090255737305
 21
3.855853080749512
 31
0.0
1001
DBPROPERTIES
1002
{
1000
PbThick
1002
}
  0
LINE
  5
FD
330
1F
100
AcDbEntity
  8
THICK
100
AcDbLine
 10
-55.10090255737305
 20
3.855853080749512
 30
0.0
 11
-55.03724670410156
 21
4.451193809509277
 31
0.0
1001
DBPROPERTIES
1002
{
1000
PbThick
1002
}
  0
LINE
  5
FE
330
1F
100
AcDbEntity
  8
THICK
100
AcDbLine
 10
-55.03724670410156
 20
4.451193809509277
 30
0.0
 11
-54.96451950073242
 21
5.03722095489502
 31
0.0
1001
DBPROPERTIES
1002
{
1000
PbThick
1002
}
  0
LINE
  5
FF
330
1F
100
AcDbEntity
  8
THICK
100
AcDbLine
 10
-54.96451950073242
 20
5.03722095489502
 30
0.0
 11
-54.88312530517578
 21
5.610540866851807
 31
0.0
1001
DBPROPERTIES
1002
{
1000
PbThick
1002
}
  0
LINE
  5
100
330
1F
100
AcDbEntity
  8
THICK
100
AcDbLine
 10
-54.88312530517578
 20
5.610540866851807
 30
0.0
 11
-54.79376983642578
 21
6.167952060699463
 31
0.0
1001
DBPROPERTIES
1002
{
1000
PbThick
1002
}
  0
LINE
  5
101
330
1F
100
AcDbEntity
  8
THICK
100
AcDbLine
 10
-54.79376983642578
 20
6.167952060699463
 30
0.0
 11
-54.6973991394043
 21
6.706371784210205
 31
0.0
1001
DBPROPERTIES
1002
{
1000
PbThick
1002
}
  0
LINE
  5
102
330
1F
100
AcDbEntity
  8
THICK
100
AcDbLine
 10
-54.6973991394043
 20
6.706371784210205
 30
0.0
 11
-54.59198760986328
 21
7.236891269683838
 31
0.0
1001
DBPROPERTIES
1002
{
1000
PbThick
1002
}
  0
LINE
  5
103
330
1F
100
AcDbEntity
  8
THICK
100
AcDbLine
 10
-54.59198760986328
 20
7.236891269683838
 30
0.0
 11
-54.47122955322266
 21
7.786833763122559
 31
0.0
1001
DBPROPERTIES
1002
{
1000
PbThick
1002
}
  0
LINE
  5
104
330
1F
100
AcDbEntity
  8
THICK
100
AcDbLine
 10
-54.47122955322266
 20
7.786833763122559
 30
0.0
 11
-54.33692169189453
 21
8.34074878692627
 31
0.0
1001
DBPROPERTIES
1002
{
1000
PbThick
1002
}
  0
LINE
  5
105
330
1F
100
AcDbEntity
  8
THICK
100
AcDbLine
 10
-54.33692169189453
 20
8.34074878692627
 30
0.0
 11
-54.19216918945312
 21
8.881746292114258
 31
0.0
1001
DBPROPERTIES
1002
{
1000
PbThick
1002
}
  0
LINE
  5
106
330
1F
100
AcDbEntity
  8
THICK
100
AcDbLine
 10
-54.19216918945312
 20
8.881746292114258
 30
0.0
 11
-54.04204559326172
 21
9.39453411102295
 31
0.0
1001
DBPROPERTIES
1002
{
1000
PbThick
1002
}
  0
LINE
  5
107
330
1F
100
AcDbEntity
  8
THICK
100
AcDbLine
 10
-54.04204559326172
 20
9.39453411102295
 30
0.0
 11
-53.88649749755859
 21
9.881378173828125
 31
0.0
1001
DBPROPERTIES
1002
{
1000
PbThick
1002
}
  0
LINE
  5
108
330
1F
100
AcDbEntity
  8
THICK
100
AcDbLine
 10
-53.88649749755859
 20
9.881378173828125
 30
0.0
 11
-53.71437835693359
 21
10.37624645233154
 31
0.0
1001
DBPROPERTIES
1002
{
1000
PbThick
1002
}
  0
LINE
  5
109
330
1F
100
AcDbEntity
  8
THICK
100
AcDbLine
 10
-53.71437835693359
 20
10.37624645233154
 30
0.0
 11
-53.52605056762695
 21
10.87293529510498
 31
0.0
1001
DBPROPERTIES
1002
{
1000
PbThick
1002
}
  0
LINE
  5
10A
330
1F
100
AcDbEntity
  8
THICK
100
AcDbLine
 10
-53.52605056762695
 20
10.87293529510498
 30
0.0
 11
-53.32323837280273
 21
11.36358547210693
 31
0.0
1001
DBPROPERTIES
1002
{
1000
PbThick
1002
}
  0
LINE
  5
10B
330
1F
100
AcDbEntity
  8
THICK
100
AcDbLine
 10
-53.32323837280273
 20
11.36358547210693
 30
0.0
 11
-53.10812759399414
 21
11.840895652771
 31
0.0
1001
DBPROPERTIES
1002
{
1000
PbThick
1002
}
  0
LINE
  5
10C
330
1F
100
AcDbEntity
  8
THICK
100
AcDbLine
 10
-53.10812759399414
 20
11.840895652771
 30
0.0
 11
-52.88371276855469
 21
12.29837036132812
 31
0.0
1001
DBPROPERTIES
1002
{
1000
PbThick
1002
}
  0
LINE
  5
10D
330
1F
100
AcDbEntity
  8
THICK
100
AcDbLine
 10
-52.88371276855469
 20
12.29837036132812
 30
0.0
 11
-52.65358352661133
 21
12.73006248474121
 31
0.0
1001
DBPROPERTIES
1002
{
1000
PbThick
1002
}
  0
LINE
  5
10E
330
1F
100
AcDbEntity
  8
THICK
100
AcDbLine
 10
-52.65358352661133
 20
12.73006248474121
 30
0.0
 11
-52.42010116577148
 21
13.13422584533691
 31
0.0
1001
DBPROPERTIES
1002
{
1000
PbThick
1002
}
  0
LINE
  5
10F
330
1F
100
AcDbEntity
  8
THICK
100
AcDbLine
 10
-52.42010116577148
 20
13.13422584533691
 30
0.0
 11
-52.17083358764648
 21
13.53243064880371
 31
0.0
1001
DBPROPERTIES
1002
{
1000
PbThick
1002
}
  0
LINE
  5
110
330
1F
100
AcDbEntity
  8
THICK
100
AcDbLine
 10
-52.17083358764648
 20
13.53243064880371
 30
0.0
 11
-51.90339660644531
 21
13.92605400085449
 31
0.0
1001
DBPROPERTIES
1002
{
1000
PbThick
1002
}
  0
LINE
  5
111
330
1F
100
AcDbEntity
  8
THICK
100
AcDbLine
 10
-51.90339660644531
 20
13.92605400085449
 30
0.0
 11
-51.61849975585938
 21
14.31107521057129
 31
0.0
1001
DBPROPERTIES
1002
{
1000
PbThick
1002
}
  0
LINE
  5
112
330
1F
100
AcDbEntity
  8
THICK
100
AcDbLine
 10
-51.61849975585938
 20
14.31107521057129
 30
0.0
 11
-51.31730270385742
 21
14.68409061431885
 31
0.0
1001
DBPROPERTIES
1002
{
1000
PbThick
1002
}
  0
LINE
  5
113
330
1F
100
AcDbEntity
  8
THICK
100
AcDbLine
 10
-51.31730270385742
 20
14.68409061431885
 30
0.0
 11
-51.00121307373047
 21
15.04202556610107
 31
0.0
1001
DBPROPERTIES
1002
{
1000
PbThick
1002
}
  0
LINE
  5
114
330
1F
100
AcDbEntity
  8
THICK
100
AcDbLine
 10
-51.00121307373047
 20
15.04202556610107
 30
0.0
 11
-50.6717414855957
 21
15.3820858001709
 31
0.0
1001
DBPROPERTIES
1002
{
1000
PbThick
1002
}
  0
LINE
  5
115
330
1F
100
AcDbEntity
  8
THICK
100
AcDbLine
 10
-50.6717414855957
 20
15.3820858001709
 30
0.0
 11
-50.33098602294922
 21
15.7022066116333
 31
0.0
1001
DBPROPERTIES
1002
{
1000
PbThick
1002
}
  0
LINE
  5
116
330
1F
100
AcDbEntity
  8
THICK
100
AcDbLine
 10
-50.33098602294922
 20
15.7022066116333
 30
0.0
 11
-49.98123168945312
 21
16.00044631958008
 31
0.0
1001
DBPROPERTIES
1002
{
1000
PbThick
1002
}
  0
LINE
  5
117
330
1F
100
AcDbEntity
  8
THICK
100
AcDbLine
 10
-49.98123168945312
 20
16.00044631958008
 30
0.0
 11
-49.6251106262207
 21
16.27532768249512
 31
0.0
1001
DBPROPERTIES
1002
{
1000
PbThick
1002
}
  0
LINE
  5
118
330
1F
100
AcDbEntity
  8
THICK
100
AcDbLine
 10
-49.6251106262207
 20
16.27532768249512
 30
0.0
 11
-49.26578903198242
 21
16.52604675292969
 31
0.0
1001
DBPROPERTIES
1002
{
1000
PbThick
1002
}
  0
LINE
  5
119
330
1F
100
AcDbEntity
  8
THICK
100
AcDbLine
 10
-49.26578903198242
 20
16.52604675292969
 30
0.0
 11
-48.90028381347656
 21
16.75562858581543
 31
0.0
1001
DBPROPERTIES
1002
{
1000
PbThick
1002
}
  0
LINE
  5
11A
330
1F
100
AcDbEntity
  8
THICK
100
AcDbLine
 10
-48.90028381347656
 20
16.75562858581543
 30
0.0
 11
-48.5114631652832
 21
16.97402763366699
 31
0.0
1001
DBPROPERTIES
1002
{
1000
PbThick
1002
}
  0
LINE
  5
11B
330
1F
100
AcDbEntity
  8
THICK
100
AcDbLine
 10
-48.5114631652832
 20
16.97402763366699
 30
0.0
 11
-48.10081100463867
 21
17.17792510986328
 31
0.0
1001
DBPROPERTIES
1002
{
1000
PbThick
1002
}
  0
LINE
  5
11C
330
1F
100
AcDbEntity
  8
THICK
100
AcDbLine
 10
-48.10081100463867
 20
17.17792510986328
 30
0.0
 11
-47.67181015014648
 21
17.36376762390137
 31
0.0
1001
DBPROPERTIES
1002
{
1000
PbThick
1002
}
  0
LINE
  5
11D
330
1F
100
AcDbEntity
  8
THICK
100
AcDbLine
 10
-47.67181015014648
 20
17.36376762390137
 30
0.0
 11
-47.2283935546875
 21
17.5288200378418
 31
0.0
1001
DBPROPERTIES
1002
{
1000
PbThick
1002
}
  0
LINE
  5
11E
330
1F
100
AcDbEntity
  8
THICK
100
AcDbLine
 10
-47.2283935546875
 20
17.5288200378418
 30
0.0
 11
-46.7747688293457
 21
17.67109489440918
 31
0.0
1001
DBPROPERTIES
1002
{
1000
PbThick
1002
}
  0
LINE
  5
11F
330
1F
100
AcDbEntity
  8
THICK
100
AcDbLine
 10
-46.7747688293457
 20
17.67109489440918
 30
0.0
 11
-46.3157844543457
 21
17.78959655761719
 31
0.0
1001
DBPROPERTIES
1002
{
1000
PbThick
1002
}
  0
LINE
  5
120
330
1F
100
AcDbEntity
  8
THICK
100
AcDbLine
 10
-46.3157844543457
 20
17.78959655761719
 30
0.0
 11
-45.85662460327148
 21
17.88390731811523
 31
0.0
1001
DBPROPERTIES
1002
{
1000
PbThick
1002
}
  0
LINE
  5
121
330
1F
100
AcDbEntity
  8
THICK
100
AcDbLine
 10
-45.85662460327148
 20
17.88390731811523
 30
0.0
 11
-45.40303421020508
 21
17.95475769042969
 31
0.0
1001
DBPROPERTIES
1002
{
1000
PbThick
1002
}
  0
LINE
  5
122
330
1F
100
AcDbEntity
  8
THICK
100
AcDbLine
 10
-45.40303421020508
 20
17.95475769042969
 30
0.0
 11
-44.93858337402344
 21
18.00530815124512
 31
0.0
1001
DBPROPERTIES
1002
{
1000
PbThick
1002
}
  0
LINE
  5
123
330
1F
100
AcDbEntity
  8
THICK
100
AcDbLine
 10
-44.93858337402344
 20
18.00530815124512
 30
0.0
 11
-44.44962310791016
 21
18.03576850891113
 31
0.0
1001
DBPROPERTIES
1002
{
1000
PbThick
1002
}
  0
LINE
  5
124
330
1F
100
AcDbEntity
  8
THICK
100
AcDbLine
 10
-44.44962310791016
 20
18.03576850891113
 30
0.0
 11
-43.94225692749023
 21
18.04363632202148
 31
0.0
1001
DBPROPERTIES
1002
{
1000
PbThick
1002
}
  0
LINE
  5
125
330
1F
100
AcDbEntity
  8
THICK
100
AcDbLine
 10
-43.94225692749023
 20
18.04363632202148
 30
0.0
 11
-43.42305374145508
 21
18.02780151367188
 31
0.0
1001
DBPROPERTIES
1002
{
1000
PbThick
1002
}
  0
LINE
  5
126
330
1F
100
AcDbEntity
  8
THICK
100
AcDbLine
 10
-43.42305374145508
 20
18.02780151367188
 30
0.0
 11
-42.89875411987305
 21
17.98806762695312
 31
0.0
1001
DBPROPERTIES
1002
{
1000
PbThick
1002
}
  0
LINE
  5
127
330
1F
100
AcDbEntity
  8
THICK
100
AcDbLine
 10
-42.89875411987305
 20
17.98806762695312
 30
0.0
 11
-42.37656021118164
 21
17.92561149597168
 31
0.0
1001
DBPROPERTIES
1002
{
1000
PbThick
1002
}
  0
LINE
  5
128
330
1F
100
AcDbEntity
  8
THICK
100
AcDbLine
 10
-42.37656021118164
 20
17.92561149597168
 30
0.0
 11
-41.86398696899414
 21
17.84260559082031
 31
0.0
1001
DBPROPERTIES
1002
{
1000
PbThick
1002
}
  0
LINE
  5
129
330
1F
100
AcDbEntity
  8
THICK
100
AcDbLine
 10
-41.86398696899414
 20
17.84260559082031
 30
0.0
 11
-41.36395645141602
 21
17.74138641357422
 31
0.0
1001
DBPROPERTIES
1002
{
1000
PbThick
1002
}
  0
LINE
  5
12A
330
1F
100
AcDbEntity
  8
THICK
100
AcDbLine
 10
-41.36395645141602
 20
17.74138641357422
 30
0.0
 11
-40.84664916992188
 21
17.61593437194824
 31
0.0
1001
DBPROPERTIES
1002
{
1000
PbThick
1002
}
  0
LINE
  5
12B
330
1F
100
AcDbEntity
  8
THICK
100
AcDbLine
 10
-40.84664916992188
 20
17.61593437194824
 30
0.0
 11
-40.31234741210938
 21
17.46442985534668
 31
0.0
1001
DBPROPERTIES
1002
{
1000
PbThick
1002
}
  0
LINE
  5
12C
330
1F
100
AcDbEntity
  8
THICK
100
AcDbLine
 10
-40.31234741210938
 20
17.46442985534668
 30
0.0
 11
-39.7694206237793
 21
17.28783226013184
 31
0.0
1001
DBPROPERTIES
1002
{
1000
PbThick
1002
}
  0
LINE
  5
12D
330
1F
100
AcDbEntity
  8
THICK
100
AcDbLine
 10
-39.7694206237793
 20
17.28783226013184
 30
0.0
 11
-39.22621917724609
 21
17.08817863464355
 31
0.0
1001
DBPROPERTIES
1002
{
1000
PbThick
1002
}
  0
LINE
  5
12E
330
1F
100
AcDbEntity
  8
THICK
100
AcDbLine
 10
-39.22621917724609
 20
17.08817863464355
 30
0.0
 11
-38.69100952148438
 21
16.86894989013672
 31
0.0
1001
DBPROPERTIES
1002
{
1000
PbThick
1002
}
  0
LINE
  5
12F
330
1F
100
AcDbEntity
  8
THICK
100
AcDbLine
 10
-38.69100952148438
 20
16.86894989013672
 30
0.0
 11
-38.1721076965332
 21
16.63465309143066
 31
0.0
1001
DBPROPERTIES
1002
{
1000
PbThick
1002
}
  0
LINE
  5
130
330
1F
100
AcDbEntity
  8
THICK
100
AcDbLine
 10
-38.1721076965332
 20
16.63465309143066
 30
0.0
 11
-37.67555236816406
 21
16.39010238647461
 31
0.0
1001
DBPROPERTIES
1002
{
1000
PbThick
1002
}
  0
LINE
  5
131
330
1F
100
AcDbEntity
  8
THICK
100
AcDbLine
 10
-37.67555236816406
 20
16.39010238647461
 30
0.0
 11
-37.17361068725586
 21
16.12206840515137
 31
0.0
1001
DBPROPERTIES
1002
{
1000
PbThick
1002
}
  0
LINE
  5
132
330
1F
100
AcDbEntity
  8
THICK
100
AcDbLine
 10
-37.17361068725586
 20
16.12206840515137
 30
0.0
 11
-36.66193389892578
 21
15.82661914825439
 31
0.0
1001
DBPROPERTIES
1002
{
1000
PbThick
1002
}
  0
LINE
  5
133
330
1F
100
AcDbEntity
  8
THICK
100
AcDbLine
 10
-36.66193389892578
 20
15.82661914825439
 30
0.0
 11
-36.14888000488281
 21
15.50691604614258
 31
0.0
1001
DBPROPERTIES
1002
{
1000
PbThick
1002
}
  0
LINE
  5
134
330
1F
100
AcDbEntity
  8
THICK
100
AcDbLine
 10
-36.14888000488281
 20
15.50691604614258
 30
0.0
 11
-35.64241409301758
 21
15.16710662841797
 31
0.0
1001
DBPROPERTIES
1002
{
1000
PbThick
1002
}
  0
LINE
  5
135
330
1F
100
AcDbEntity
  8
THICK
100
AcDbLine
 10
-35.64241409301758
 20
15.16710662841797
 30
0.0
 11
-35.14988327026367
 21
14.81230354309082
 31
0.0
1001
DBPROPERTIES
1002
{
1000
PbThick
1002
}
  0
LINE
  5
136
330
1F
100
AcDbEntity
  8
THICK
100
AcDbLine
 10
-35.14988327026367
 20
14.81230354309082
 30
0.0
 11
-34.67829132080078
 21
14.44855117797852
 31
0.0
1001
DBPROPERTIES
1002
{
1000
PbThick
1002
}
  0
ARC
  5
137
330
1F
100
AcDbEntity
  8
THICK
100
AcDbCircle
 10
0.000000000000008
 20
0.0
 30
0.0
 40
37.56786511661675
100
AcDbArc
 50
89.99998127603165
 51
157.3811930821248
1001
DBPROPERTIES
1002
{
1000
PbThick
1002
}
  0
ARC
  5
138
330
1F
100
AcDbEntity
  8
THICK
100
AcDbCircle
 10
0.000000000000008
 20
0.0
 30
0.0
 40
37.56786511661675
100
AcDbArc
 50
202.6188069178752
 51
270.0000187239684
1001
DBPROPERTIES
1002
{
1000
PbThick
1002
}
  0
LINE
  5
139
330
1F
100
AcDbEntity
  8
HIDDEN
100
AcDbLine
 10
-224.38
 20
-0.000000000000004
 30
0.0
 11
-224.38
 21
61.5
 31
0.0
1001
DBPROPERTIES
1002
{
1000
PbHidd
1002
}
  0
LINE
  5
13A
330
1F
100
AcDbEntity
  8
HIDDEN
100
AcDbLine
 10
-228.38
 20
61.5
 30
0.0
 11
-228.38
 21
-0.0000000000000035
 31
0.0
1001
DBPROPERTIES
1002
{
1000
PbHidd
1002
}
  0
LINE
  5
13B
330
1F
100
AcDbEntity
  8
HIDDEN
100
AcDbLine
 10
228.38
 20
0.0000000000000038
 30
0.0
 11
228.38
 21
61.5
 31
0.0
1001
DBPROPERTIES
1002
{
1000
PbHidd
1002
}
  0
LINE
  5
13C
330
1F
100
AcDbEntity
  8
HIDDEN
100
AcDbLine
 10
224.38
 20
61.5
 30
0.0
 11
224.38
 21
0.0000000000000038
 31
0.0
1001
DBPROPERTIES
1002
{
1000
PbHidd
1002
}
  0
LINE
  5
13D
330
1F
100
AcDbEntity
  8
HIDDEN
100
AcDbLine
 10
-184.8
 20
-35.80851853958776
 30
0.0
 11
-180.8
 21
-35.80851853958776
 31
0.0
1001
DBPROPERTIES
1002
{
1000
PbHidd
1002
}
  0
LINE
  5
13E
330
1F
100
AcDbEntity
  8
HIDDEN
100
AcDbLine
 10
-180.8
 20
-40.81972562377165
 30
0.0
 11
-184.8
 21
-40.81972562377165
 31
0.0
1001
DBPROPERTIES
1002
{
1000
PbHidd
1002
}
  0
LINE
  5
13F
330
1F
100
AcDbEntity
  8
HIDDEN
100
AcDbLine
 10
-184.8
 20
-55.73374202401988
 30
0.0
 11
-180.8
 21
-55.73374202401988
 31
0.0
1001
DBPROPERTIES
1002
{
1000
PbHidd
1002
}
  0
LINE
  5
140
330
1F
100
AcDbEntity
  8
HIDDEN
100
AcDbLine
 10
-180.8
 20
-57.4303926505818
 30
0.0
 11
-184.8
 21
-57.4303926505818
 31
0.0
1001
DBPROPERTIES
1002
{
1000
PbHidd
1002
}
  0
LINE
  5
141
330
1F
100
AcDbEntity
  8
HIDDEN
100
AcDbLine
 10
-184.8
 20
-61.46747107210447
 30
0.0
 11
-180.8
 21
-61.46747107210447
 31
0.0
1001
DBPROPERTIES
1002
{
1000
PbHidd
1002
}
  0
LINE
  5
142
330
1F
100
AcDbEntity
  8
HIDDEN
100
AcDbLine
 10
-175.4468599666426
 20
-0.0000000000000026
 30
0.0
 11
-175.4468599666426
 21
61.5
 31
0.0
1001
DBPROPERTIES
1002
{
1000
PbHidd
1002
}
  0
LINE
  5
143
330
1F
100
AcDbEntity
  8
HIDDEN
100
AcDbLine
 10
-180.8
 20
-112.0
 30
0.0
 11
-181.5032930884901
 21
-112.0
 31
0.0
1001
DBPROPERTIES
1002
{
1000
PbHidd
1002
}
  0
LINE
  5
144
330
1F
100
AcDbEntity
  8
HIDDEN
100
AcDbLine
 10
-184.8
 20
-101.0
 30
0.0
 11
-184.8
 21
-101.0
 31
0.0
1001
DBPROPERTIES
1002
{
1000
PbHidd
1002
}
  0
LINE
  5
145
330
1F
100
AcDbEntity
  8
HIDDEN
100
AcDbLine
 10
-180.8
 20
-113.0
 30
0.0
 11
-180.8
 21
-113.0
 31
0.0
1001
DBPROPERTIES
1002
{
1000
PbHidd
1002
}
  0
LINE
  5
146
330
1F
100
AcDbEntity
  8
HIDDEN
100
AcDbLine
 10
-180.8
 20
-112.0
 30
0.0
 11
-180.8
 21
-112.0
 31
0.0
1001
DBPROPERTIES
1002
{
1000
PbHidd
1002
}
  0
LINE
  5
147
330
1F
100
AcDbEntity
  8
HIDDEN
100
AcDbLine
 10
-184.8
 20
-101.0
 30
0.0
 11
-184.8
 21
-101.0
 31
0.0
1001
DBPROPERTIES
1002
{
1000
PbHidd
1002
}
  0
LINE
  5
148
330
1F
100
AcDbEntity
  8
HIDDEN
100
AcDbLine
 10
-180.8
 20
-112.0
 30
0.0
 11
-180.8
 21
-112.0
 31
0.0
1001
DBPROPERTIES
1002
{
1000
PbHidd
1002
}
  0
LINE
  5
149
330
1F
100
AcDbEntity
  8
HIDDEN
100
AcDbLine
 10
-180.8
 20
-113.0
 30
0.0
 11
-180.8
 21
-113.0
 31
0.0
1001
DBPROPERTIES
1002
{
1000
PbHidd
1002
}
  0
LINE
  5
14A
330
1F
100
AcDbEntity
  8
HIDDEN
100
AcDbLine
 10
-180.8
 20
0.0000000000000071
 30
0.0
 11
-180.8
 21
0.0000000000000071
 31
0.0
1001
DBPROPERTIES
1002
{
1000
PbHidd
1002
}
  0
LINE
  5
14B
330
1F
100
AcDbEntity
  8
HIDDEN
100
AcDbLine
 10
-175.56
 20
0.0000000000000071
 30
0.0
 11
-175.56
 21
0.0000000000000071
 31
0.0
1001
DBPROPERTIES
1002
{
1000
PbHidd
1002
}
  0
LINE
  5
14C
330
1F
100
AcDbEntity
  8
HIDDEN
100
AcDbLine
 10
-184.8
 20
-101.0
 30
0.0
 11
-184.8
 21
-101.0
 31
0.0
1001
DBPROPERTIES
1002
{
1000
PbHidd
1002
}
  0
LINE
  5
14D
330
1F
100
AcDbEntity
  8
HIDDEN
100
AcDbLine
 10
-180.8
 20
-113.0
 30
0.0
 11
-180.8
 21
-113.0
 31
0.0
1001
DBPROPERTIES
1002
{
1000
PbHidd
1002
}
  0
LINE
  5
14E
330
1F
100
AcDbEntity
  8
HIDDEN
100
AcDbLine
 10
-180.8
 20
-112.0
 30
0.0
 11
-180.8
 21
-112.0
 31
0.0
1001
DBPROPERTIES
1002
{
1000
PbHidd
1002
}
  0
LINE
  5
14F
330
1F
100
AcDbEntity
  8
HIDDEN
100
AcDbLine
 10
175.4468599666426
 20
61.5
 30
0.0
 11
175.4468599666426
 21
0.0000000000000038
 31
0.0
1001
DBPROPERTIES
1002
{
1000
PbHidd
1002
}
  0
LINE
  5
150
330
1F
100
AcDbEntity
  8
HIDDEN
100
AcDbLine
 10
180.8
 20
-61.46747107210447
 30
0.0
 11
184.8
 21
-61.46747107210447
 31
0.0
1001
DBPROPERTIES
1002
{
1000
PbHidd
1002
}
  0
LINE
  5
151
330
1F
100
AcDbEntity
  8
HIDDEN
100
AcDbLine
 10
184.8
 20
-57.4303926505818
 30
0.0
 11
180.8
 21
-57.4303926505818
 31
0.0
1001
DBPROPERTIES
1002
{
1000
PbHidd
1002
}
  0
LINE
  5
152
330
1F
100
AcDbEntity
  8
HIDDEN
100
AcDbLine
 10
180.8
 20
-55.73374202401988
 30
0.0
 11
184.8
 21
-55.73374202401988
 31
0.0
1001
DBPROPERTIES
1002
{
1000
PbHidd
1002
}
  0
LINE
  5
153
330
1F
100
AcDbEntity
  8
HIDDEN
100
AcDbLine
 10
184.8
 20
-40.81972562377165
 30
0.0
 11
180.8
 21
-40.81972562377165
 31
0.0
1001
DBPROPERTIES
1002
{
1000
PbHidd
1002
}
  0
LINE
  5
154
330
1F
100
AcDbEntity
  8
HIDDEN
100
AcDbLine
 10
180.8
 20
-35.80851853958776
 30
0.0
 11
184.8
 21
-35.80851853958776
 31
0.0
1001
DBPROPERTIES
1002
{
1000
PbHidd
1002
}
  0
LINE
  5
155
330
1F
100
AcDbEntity
  8
HIDDEN
100
AcDbLine
 10
180.8
 20
-112.0
 30
0.0
 11
180.8
 21
-112.0
 31
0.0
1001
DBPROPERTIES
1002
{
1000
PbHidd
1002
}
  0
LINE
  5
156
330
1F
100
AcDbEntity
  8
HIDDEN
100
AcDbLine
 10
180.8
 20
-113.0
 30
0.0
 11
180.8
 21
-113.0
 31
0.0
1001
DBPROPERTIES
1002
{
1000
PbHidd
1002
}
  0
LINE
  5
157
330
1F
100
AcDbEntity
  8
HIDDEN
100
AcDbLine
 10
184.8
 20
-101.0
 30
0.0
 11
184.8
 21
-101.0
 31
0.0
1001
DBPROPERTIES
1002
{
1000
PbHidd
1002
}
  0
LINE
  5
158
330
1F
100
AcDbEntity
  8
HIDDEN
100
AcDbLine
 10
181.5032930884901
 20
-112.0
 30
0.0
 11
180.8
 21
-112.0
 31
0.0
1001
DBPROPERTIES
1002
{
1000
PbHidd
1002
}
  0
LINE
  5
159
330
1F
100
AcDbEntity
  8
HIDDEN
100
AcDbLine
 10
180.8
 20
-113.0
 30
0.0
 11
180.8
 21
-113.0
 31
0.0
1001
DBPROPERTIES
1002
{
1000
PbHidd
1002
}
  0
LINE
  5
15A
330
1F
100
AcDbEntity
  8
HIDDEN
100
AcDbLine
 10
180.8
 20
-112.0
 30
0.0
 11
180.8
 21
-112.0
 31
0.0
1001
DBPROPERTIES
1002
{
1000
PbHidd
1002
}
  0
LINE
  5
15B
330
1F
100
AcDbEntity
  8
THICK
100
AcDbLine
 10
184.8
 20
-35.80851853958776
 30
0.0
 11
184.8
 21
-101.0
 31
0.0
1001
DBPROPERTIES
1002
{
1000
PbThick
1002
}
  0
LINE
  5
15C
330
1F
100
AcDbEntity
  8
HIDDEN
100
AcDbLine
 10
184.8
 20
-101.0
 30
0.0
 11
184.8
 21
-101.0
 31
0.0
1001
DBPROPERTIES
1002
{
1000
PbHidd
1002
}
  0
ARC
  5
15D
330
1F
100
AcDbEntity
  8
THICK
100
AcDbCircle
 10
164.8
 20
-101.0
 30
0.0
 40
20.0
100
AcDbArc
 50
323.130108587552
 51
0.0
1001
DBPROPERTIES
1002
{
1000
PbThick
1002
}
  0
LINE
  5
15E
330
1F
100
AcDbEntity
  8
HIDDEN
100
AcDbLine
 10
180.8
 20
0.0000000000000071
 30
0.0
 11
180.8
 21
0.0000000000000071
 31
0.0
1001
DBPROPERTIES
1002
{
1000
PbHidd
1002
}
  0
LINE
  5
15F
330
1F
100
AcDbEntity
  8
THICK
100
AcDbLine
 10
180.8
 20
-113.0
 30
0.0
 11
180.8
 21
0.0000000000000071
 31
0.0
1001
DBPROPERTIES
1002
{
1000
PbThick
1002
}
  0
LINE
  5
160
330
1F
100
AcDbEntity
  8
HIDDEN
100
AcDbLine
 10
180.8
 20
-113.0
 30
0.0
 11
180.8
 21
-113.0
 31
0.0
1001
DBPROPERTIES
1002
{
1000
PbHidd
1002
}
  0
LINE
  5
161
330
1F
100
AcDbEntity
  8
HIDDEN
100
AcDbLine
 10
175.56
 20
0.0000000000000071
 30
0.0
 11
175.56
 21
0.0000000000000071
 31
0.0
1001
DBPROPERTIES
1002
{
1000
PbHidd
1002
}
  0
LINE
  5
162
330
1F
100
AcDbEntity
  8
HIDDEN
100
AcDbLine
 10
175.56
 20
0.0000000000000071
 30
0.0
 11
175.56
 21
0.0000000000000071
 31
0.0
1001
DBPROPERTIES
1002
{
1000
PbHidd
1002
}
  0
LINE
  5
163
330
1F
100
AcDbEntity
  8
HIDDEN
100
AcDbLine
 10
175.56
 20
-102.0
 30
0.0
 11
175.56
 21
-102.0
 31
0.0
1001
DBPROPERTIES
1002
{
1000
PbHidd
1002
}
  0
LINE
  5
164
330
1F
100
AcDbEntity
  8
THICK
100
AcDbLine
 10
175.56
 20
0.0000000000000071
 30
0.0
 11
175.56
 21
-102.0
 31
0.0
1001
DBPROPERTIES
1002
{
1000
PbThick
1002
}
  0
LINE
  5
165
330
1F
100
AcDbEntity
  8
HIDDEN
100
AcDbLine
 10
180.8
 20
0.0000000000000071
 30
0.0
 11
180.8
 21
0.0000000000000071
 31
0.0
1001
DBPROPERTIES
1002
{
1000
PbHidd
1002
}
  0
LINE
  5
166
330
1F
100
AcDbEntity
  8
THICK
100
AcDbLine
 10
180.8
 20
0.0000000000000073
 30
0.0
 11
175.56
 21
0.0000000000000073
 31
0.0
1001
DBPROPERTIES
1002
{
1000
PbThick
1002
}
  0
LINE
  5
167
330
1F
100
AcDbEntity
  8
HIDDEN
100
AcDbLine
 10
-180.8
 20
0.0000000000000071
 30
0.0
 11
-180.8
 21
0.0000000000000071
 31
0.0
1001
DBPROPERTIES
1002
{
1000
PbHidd
1002
}
  0
LINE
  5
168
330
1F
100
AcDbEntity
  8
HIDDEN
100
AcDbLine
 10
-180.8
 20
-113.0
 30
0.0
 11
-180.8
 21
-113.0
 31
0.0
1001
DBPROPERTIES
1002
{
1000
PbHidd
1002
}
  0
LINE
  5
169
330
1F
100
AcDbEntity
  8
THICK
100
AcDbLine
 10
-180.8
 20
0.0000000000000071
 30
0.0
 11
-180.8
 21
-113.0
 31
0.0
1001
DBPROPERTIES
1002
{
1000
PbThick
1002
}
  0
LINE
  5
16A
330
1F
100
AcDbEntity
  8
THICK
100
AcDbLine
 10
-184.8
 20
-101.0
 30
0.0
 11
-184.8
 21
-35.80851853958776
 31
0.0
1001
DBPROPERTIES
1002
{
1000
PbThick
1002
}
  0
ARC
  5
16B
330
1F
100
AcDbEntity
  8
THICK
100
AcDbCircle
 10
-164.8
 20
-101.0
 30
0.0
 40
20.0
100
AcDbArc
 50
180.0000198478428
 51
216.8698715646052
1001
DBPROPERTIES
1002
{
1000
PbThick
1002
}
  0
LINE
  5
16C
330
1F
100
AcDbEntity
  8
THICK
100
AcDbLine
 10
-175.56
 20
0.0000000000000073
 30
0.0
 11
-180.8
 21
0.0000000000000073
 31
0.0
1001
DBPROPERTIES
1002
{
1000
PbThick
1002
}
  0
ELLIPSE
  5
16D
330
1F
100
AcDbEntity
  8
THICK
100
AcDbEllipse
 10
-164.8
 20
-101.0
 30
0.0
 11
2.044384160926613E-15
 21
-20.0
 31
0.0
210
0.0
220
0.0
230
1.0
 40
1.0
 41
-0.9272952180016121
 42
0.0
1001
DBPROPERTIES
1002
{
1000
PbThick
1002
}
  0
LINE
  5
16E
330
1F
100
AcDbEntity
  8
THICK
100
AcDbLine
 10
164.8
 20
-121.0
 30
0.0
 11
-164.8
 21
-121.0
 31
0.0
1001
DBPROPERTIES
1002
{
1000
PbThick
1002
}
  0
ELLIPSE
  5
16F
330
1F
100
AcDbEntity
  8
THICK
100
AcDbEllipse
 10
164.8
 20
-101.0
 30
0.0
 11
1.022192080463306E-15
 21
-20.0
 31
0.0
210
0.0
220
0.0
230
1.0
 40
1.0
 41
0.0
 42
0.9272952180016121
1001
DBPROPERTIES
1002
{
1000
PbThick
1002
}
  0
ELLIPSE
  5
170
330
1F
100
AcDbEntity
  8
THICK
100
AcDbEllipse
 10
165.56
 20
-102.0
 30
0.0
 11
5.110960402316532E-16
 21
-10.0
 31
0.0
210
0.0
220
0.0
230
1.0
 40
1.0
 41
0.451026811796263
 42
1.570796326794895
1001
DBPROPERTIES
1002
{
1000
PbThick
1002
}
  0
LINE
  5
171
330
1F
100
AcDbEntity
  8
THICK
100
AcDbLine
 10
169.9188989435407
 20
-111.0
 30
0.0
 11
-169.9188989435407
 21
-111.0
 31
0.0
1001
DBPROPERTIES
1002
{
1000
PbThick
1002
}
  0
ELLIPSE
  5
172
330
1F
100
AcDbEntity
  8
THICK
100
AcDbEllipse
 10
-165.56
 20
-102.0
 30
0.0
 11
1.022192080463306E-15
 21
-10.0
 31
0.0
210
0.0
220
0.0
230
1.0
 40
1.0
 41
-1.570796326794897
 42
-0.451026811796263
1001
DBPROPERTIES
1002
{
1000
PbThick
1002
}
  0
LINE
  5
173
330
1F
100
AcDbEntity
  8
THICK
100
AcDbLine
 10
-175.56
 20
-102.0
 30
0.0
 11
-175.56
 21
0.0000000000000071
 31
0.0
1001
DBPROPERTIES
1002
{
1000
PbThick
1002
}
  0
LINE
  5
174
330
1F
100
AcDbEntity
  8
HIDDEN
100
AcDbLine
 10
-184.8
 20
-101.0
 30
0.0
 11
-184.8
 21
-101.0
 31
0.0
1001
DBPROPERTIES
1002
{
1000
PbHidd
1002
}
  0
LINE
  5
175
330
1F
100
AcDbEntity
  8
HIDDEN
100
AcDbLine
 10
-180.8
 20
-113.0
 30
0.0
 11
-180.8
 21
-113.0
 31
0.0
1001
DBPROPERTIES
1002
{
1000
PbHidd
1002
}
  0
LINE
  5
176
330
1F
100
AcDbEntity
  8
HIDDEN
100
AcDbLine
 10
-164.8
 20
-121.0
 30
0.0
 11
-164.8
 21
-121.0
 31
0.0
1001
DBPROPERTIES
1002
{
1000
PbHidd
1002
}
  0
LINE
  5
177
330
1F
100
AcDbEntity
  8
HIDDEN
100
AcDbLine
 10
-180.8
 20
-112.0
 30
0.0
 11
-180.8
 21
-112.0
 31
0.0
1001
DBPROPERTIES
1002
{
1000
PbHidd
1002
}
  0
LINE
  5
178
330
1F
100
AcDbEntity
  8
HIDDEN
100
AcDbLine
 10
-181.5032930884901
 20
-112.0
 30
0.0
 11
-181.5032930884901
 21
-112.0
 31
0.0
1001
DBPROPERTIES
1002
{
1000
PbHidd
1002
}
  0
LINE
  5
179
330
1F
100
AcDbEntity
  8
HIDDEN
100
AcDbLine
 10
-180.8
 20
-112.0
 30
0.0
 11
180.8
 21
-112.0
 31
0.0
1001
DBPROPERTIES
1002
{
1000
PbHidd
1002
}
  0
LINE
  5
17A
330
1F
100
AcDbEntity
  8
HIDDEN
100
AcDbLine
 10
-175.56
 20
0.0000000000000071
 30
0.0
 11
-175.56
 21
0.0000000000000071
 31
0.0
1001
DBPROPERTIES
1002
{
1000
PbHidd
1002
}
  0
LINE
  5
17B
330
1F
100
AcDbEntity
  8
HIDDEN
100
AcDbLine
 10
-181.5032930884901
 20
-112.0
 30
0.0
 11
-181.5032930884901
 21
-112.0
 31
0.0
1001
DBPROPERTIES
1002
{
1000
PbHidd
1002
}
  0
LINE
  5
17C
330
1F
100
AcDbEntity
  8
HIDDEN
100
AcDbLine
 10
180.8
 20
-112.0
 30
0.0
 11
180.8
 21
-112.0
 31
0.0
1001
DBPROPERTIES
1002
{
1000
PbHidd
1002
}
  0
LINE
  5
17D
330
1F
100
AcDbEntity
  8
HIDDEN
100
AcDbLine
 10
181.5032930884901
 20
-112.0
 30
0.0
 11
181.5032930884901
 21
-112.0
 31
0.0
1001
DBPROPERTIES
1002
{
1000
PbHidd
1002
}
  0
LINE
  5
17E
330
1F
100
AcDbEntity
  8
HIDDEN
100
AcDbLine
 10
180.8
 20
-112.0
 30
0.0
 11
180.8
 21
-112.0
 31
0.0
1001
DBPROPERTIES
1002
{
1000
PbHidd
1002
}
  0
LINE
  5
17F
330
1F
100
AcDbEntity
  8
HIDDEN
100
AcDbLine
 10
-164.8
 20
-121.0
 30
0.0
 11
-164.8
 21
-121.0
 31
0.0
1001
DBPROPERTIES
1002
{
1000
PbHidd
1002
}
  0
LINE
  5
180
330
1F
100
AcDbEntity
  8
HIDDEN
100
AcDbLine
 10
-184.8
 20
-101.0
 30
0.0
 11
-184.8
 21
-101.0
 31
0.0
1001
DBPROPERTIES
1002
{
1000
PbHidd
1002
}
  0
LINE
  5
181
330
1F
100
AcDbEntity
  8
HIDDEN
100
AcDbLine
 10
-180.8
 20
-113.0
 30
0.0
 11
-180.8
 21
-113.0
 31
0.0
1001
DBPROPERTIES
1002
{
1000
PbHidd
1002
}
  0
LINE
  5
182
330
1F
100
AcDbEntity
  8
HIDDEN
100
AcDbLine
 10
-164.8
 20
-121.0
 30
0.0
 11
-164.8
 21
-121.0
 31
0.0
1001
DBPROPERTIES
1002
{
1000
PbHidd
1002
}
  0
LINE
  5
183
330
1F
100
AcDbEntity
  8
HIDDEN
100
AcDbLine
 10
164.8
 20
-121.0
 30
0.0
 11
164.8
 21
-121.0
 31
0.0
1001
DBPROPERTIES
1002
{
1000
PbHidd
1002
}
  0
LINE
  5
184
330
1F
100
AcDbEntity
  8
HIDDEN
100
AcDbLine
 10
181.5032930884901
 20
-112.0
 30
0.0
 11
181.5032930884901
 21
-112.0
 31
0.0
1001
DBPROPERTIES
1002
{
1000
PbHidd
1002
}
  0
LINE
  5
185
330
1F
100
AcDbEntity
  8
HIDDEN
100
AcDbLine
 10
184.8
 20
-101.0
 30
0.0
 11
184.8
 21
-101.0
 31
0.0
1001
DBPROPERTIES
1002
{
1000
PbHidd
1002
}
  0
LINE
  5
186
330
1F
100
AcDbEntity
  8
HIDDEN
100
AcDbLine
 10
164.8
 20
-121.0
 30
0.0
 11
164.8
 21
-121.0
 31
0.0
1001
DBPROPERTIES
1002
{
1000
PbHidd
1002
}
  0
LINE
  5
187
330
1F
100
AcDbEntity
  8
HIDDEN
100
AcDbLine
 10
180.8
 20
-113.0
 30
0.0
 11
180.8
 21
-113.0
 31
0.0
1001
DBPROPERTIES
1002
{
1000
PbHidd
1002
}
  0
LINE
  5
188
330
1F
100
AcDbEntity
  8
HIDDEN
100
AcDbLine
 10
180.8
 20
-113.0
 30
0.0
 11
180.8
 21
-113.0
 31
0.0
1001
DBPROPERTIES
1002
{
1000
PbHidd
1002
}
  0
LINE
  5
189
330
1F
100
AcDbEntity
  8
HIDDEN
100
AcDbLine
 10
184.8
 20
-101.0
 30
0.0
 11
184.8
 21
-101.0
 31
0.0
1001
DBPROPERTIES
1002
{
1000
PbHidd
1002
}
  0
LINE
  5
18A
330
1F
100
AcDbEntity
  8
HIDDEN
100
AcDbLine
 10
184.8
 20
-101.0
 30
0.0
 11
184.8
 21
-101.0
 31
0.0
1001
DBPROPERTIES
1002
{
1000
PbHidd
1002
}
  0
LINE
  5
18B
330
1F
100
AcDbEntity
  8
HIDDEN
100
AcDbLine
 10
164.8
 20
-121.0
 30
0.0
 11
164.8
 21
-121.0
 31
0.0
1001
DBPROPERTIES
1002
{
1000
PbHidd
1002
}
  0
LINE
  5
18C
330
1F
100
AcDbEntity
  8
HIDDEN
100
AcDbLine
 10
180.8
 20
-113.0
 30
0.0
 11
180.8
 21
-113.0
 31
0.0
1001
DBPROPERTIES
1002
{
1000
PbHidd
1002
}
  0
LINE
  5
18D
330
1F
100
AcDbEntity
  8
HIDDEN
100
AcDbLine
 10
-175.56
 20
-102.0
 30
0.0
 11
-175.56
 21
-102.0
 31
0.0
1001
DBPROPERTIES
1002
{
1000
PbHidd
1002
}
  0
LINE
  5
18E
330
1F
100
AcDbEntity
  8
HIDDEN
100
AcDbLine
 10
169.9188989435407
 20
-111.0
 30
0.0
 11
169.9188989435407
 21
-111.0
 31
0.0
1001
DBPROPERTIES
1002
{
1000
PbHidd
1002
}
  0
LINE
  5
18F
330
1F
100
AcDbEntity
  8
HIDDEN
100
AcDbLine
 10
-169.9188989435407
 20
-111.0
 30
0.0
 11
-169.9188989435407
 21
-111.0
 31
0.0
1001
DBPROPERTIES
1002
{
1000
PbHidd
1002
}
  0
LINE
  5
190
330
1F
100
AcDbEntity
  8
HIDDEN
100
AcDbLine
 10
169.786182617407
 20
69.06307787036653
 30
0.0
 11
169.786182617407
 21
0.0000000000000042
 31
0.0
1001
DBPROPERTIES
1002
{
1000
PbHidd
1002
}
  0
LINE
  5
191
330
1F
100
AcDbEntity
  8
THICK
100
AcDbLine
 10
169.786182617407
 20
-0.0000000000000127
 30
0.0
 11
169.786182617407
 21
69.06307787036653
 31
0.0
1001
DBPROPERTIES
1002
{
1000
PbThick
1002
}
  0
LINE
  5
192
330
1F
100
AcDbEntity
  8
HIDDEN
100
AcDbLine
 10
-169.786182617407
 20
69.06307787036644
 30
0.0
 11
-169.786182617407
 21
0.0000000000000042
 31
0.0
1001
DBPROPERTIES
1002
{
1000
PbHidd
1002
}
  0
LINE
  5
193
330
1F
100
AcDbEntity
  8
THICK
100
AcDbLine
 10
-169.786182617407
 20
-0.0000000000000127
 30
0.0
 11
-169.786182617407
 21
69.06307787036644
 31
0.0
1001
DBPROPERTIES
1002
{
1000
PbThick
1002
}
  0
LINE
  5
194
330
1F
100
AcDbEntity
  8
HIDDEN
100
AcDbLine
 10
-150.15
 20
8.543216250051023
 30
0.0
 11
-150.15
 21
-0.0000000000000042
 31
0.0
1001
DBPROPERTIES
1002
{
1000
PbHidd
1002
}
  0
LINE
  5
195
330
1F
100
AcDbEntity
  8
HIDDEN
100
AcDbLine
 10
-150.15
 20
-0.0000000000000073
 30
0.0
 11
-150.15
 21
1.826415642166815
 31
0.0
1001
DBPROPERTIES
1002
{
1000
PbHidd
1002
}
  0
ELLIPSE
  5
196
330
1F
100
AcDbEntity
  8
HIDDEN
100
AcDbEllipse
 10
-161.7
 20
-0.0000000000000028
 30
0.0
 11
-16.2860019213245
 21
-24.09122389254528
 31
0.0
210
0.0
220
0.0
230
1.0
 40
0.3056146845806994
 41
1.848842608655804
 42
2.064231021601439
1001
DBPROPERTIES
1002
{
1000
PbHidd
1002
}
  0
ELLIPSE
  5
197
330
1F
100
AcDbEntity
  8
HIDDEN
100
AcDbEllipse
 10
-190.446869819793
 20
0.0000000000000007
 30
0.0
 11
-119.8446076653829
 21
19.79041894289058
 31
0.0
210
0.0
220
0.0
230
1.0
 40
0.1219213458618124
 41
-1.917077389249192
 42
-1.896986612338424
1001
DBPROPERTIES
1002
{
1000
PbHidd
1002
}
  0
ELLIPSE
  5
198
330
1F
100
AcDbEntity
  8
HIDDEN
100
AcDbEllipse
 10
-164.1721359549996
 20
-0.0000000000000025
 30
0.0
 11
-16.2860019213245
 21
-24.09122389254528
 31
0.0
210
0.0
220
0.0
230
1.0
 40
0.3056146845806994
 41
2.048173647027427
 42
2.084321798512207
1001
DBPROPERTIES
1002
{
1000
PbHidd
1002
}
  0
LINE
  5
199
330
1F
100
AcDbEntity
  8
HIDDEN
100
AcDbLine
 10
-150.15
 20
6.647943269170624
 30
0.0
 11
-150.15
 21
15.89721118144205
 31
0.0
1001
DBPROPERTIES
1002
{
1000
PbHidd
1002
}
  0
LINE
  5
19A
330
1F
100
AcDbEntity
  8
HIDDEN
100
AcDbLine
 10
-150.15
 20
15.89721118144203
 30
0.0
 11
-147.5017234541458
 21
19.54225113956364
 31
0.0
1001
DBPROPERTIES
1002
{
1000
PbHidd
1002
}
  0
ELLIPSE
  5
19B
330
1F
100
AcDbEntity
  8
HIDDEN
100
AcDbEllipse
 10
-190.446869819793
 20
0.0000000000000007
 30
0.0
 11
-119.8605089507751
 21
7.227330493081917
 31
0.0
210
0.0
220
0.0
230
1.0
 40
0.1961811465503411
 41
-1.925379279749606
 42
-1.905288502838838
1001
DBPROPERTIES
1002
{
1000
PbHidd
1002
}
  0
LINE
  5
19C
330
1F
100
AcDbEntity
  8
HIDDEN
100
AcDbLine
 10
-149.7586354710781
 20
19.83848147677203
 30
0.0
 11
-150.15
 21
19.29981441485019
 31
0.0
1001
DBPROPERTIES
1002
{
1000
PbHidd
1002
}
  0
LINE
  5
19D
330
1F
100
AcDbEntity
  8
HIDDEN
100
AcDbLine
 10
-150.15
 20
19.29981441485021
 30
0.0
 11
-150.15
 21
23.89581237574127
 31
0.0
1001
DBPROPERTIES
1002
{
1000
PbHidd
1002
}
  0
ELLIPSE
  5
19E
330
1F
100
AcDbEntity
  8
HIDDEN
100
AcDbEllipse
 10
-161.7
 20
-0.0000000000000028
 30
0.0
 11
16.28600192132451
 21
24.09122389254528
 31
0.0
210
0.0
220
0.0
230
1.0
 40
0.3056146845806992
 41
0.2281912999853536
 42
0.4435797129309902
1001
DBPROPERTIES
1002
{
1000
PbHidd
1002
}
  0
ELLIPSE
  5
19F
330
1F
100
AcDbEntity
  8
HIDDEN
100
AcDbEllipse
 10
-190.446869819793
 20
0.0000000000000007
 30
0.0
 11
-119.8575622434319
 21
-8.56697384880705
 31
0.0
210
0.0
220
0.0
230
1.0
 40
0.1923956436423628
 41
-1.950958888572305
 42
-1.930868111661536
1001
DBPROPERTIES
1002
{
1000
PbHidd
1002
}
  0
ELLIPSE
  5
1A0
330
1F
100
AcDbEntity
  8
HIDDEN
100
AcDbEllipse
 10
-164.1721359549996
 20
-0.0000000000000025
 30
0.0
 11
16.28600192132451
 21
24.09122389254528
 31
0.0
210
0.0
220
0.0
230
1.0
 40
0.3056146845806992
 41
0.2081005230745856
 42
0.2442486745593654
1001
DBPROPERTIES
1002
{
1000
PbHidd
1002
}
  0
LINE
  5
1A1
330
1F
100
AcDbEntity
  8
HIDDEN
100
AcDbLine
 10
-150.15
 20
24.57981243062216
 30
0.0
 11
-150.15
 21
24.6
 31
0.0
1001
DBPROPERTIES
1002
{
1000
PbHidd
1002
}
  0
LINE
  5
1A2
330
1F
100
AcDbEntity
  8
HIDDEN
100
AcDbLine
 10
-150.15
 20
24.5999999982826
 30
0.0
 11
-150.15
 21
22.7670254312977
 31
0.0
1001
DBPROPERTIES
1002
{
1000
PbHidd
1002
}
  0
ELLIPSE
  5
1A3
330
1F
100
AcDbEntity
  8
HIDDEN
100
AcDbEllipse
 10
-161.7
 20
-0.0000000000000028
 30
0.0
 11
9.528951747103536
 21
23.84640592095676
 31
0.0
210
0.0
220
0.0
230
1.0
 40
0.6340950937257177
 41
-0.3557009609865111
 42
-0.1403125480408768
1001
DBPROPERTIES
1002
{
1000
PbHidd
1002
}
  0
ELLIPSE
  5
1A4
330
1F
100
AcDbEntity
  8
HIDDEN
100
AcDbEllipse
 10
-190.446869819793
 20
0.0000000000000007
 30
0.0
 11
-119.8464980612051
 21
-20.5608870350719
 31
0.0
210
0.0
220
0.0
230
1.0
 40
0.112693504132748
 41
-1.956539338263542
 42
-1.936448561352774
1001
DBPROPERTIES
1002
{
1000
PbHidd
1002
}
  0
ELLIPSE
  5
1A5
330
1F
100
AcDbEntity
  8
HIDDEN
100
AcDbEllipse
 10
-164.1721359549996
 20
-0.0000000000000025
 30
0.0
 11
9.528951747103536
 21
23.84640592095676
 31
0.0
210
0.0
220
0.0
230
1.0
 40
0.6340950937257177
 41
-0.3757917378972808
 42
-0.3396435864125009
1001
DBPROPERTIES
1002
{
1000
PbHidd
1002
}
  0
LINE
  5
1A6
330
1F
100
AcDbEntity
  8
HIDDEN
100
AcDbLine
 10
-150.15
 20
20.47115753499361
 30
0.0
 11
-150.15
 21
12.94200859483165
 31
0.0
1001
DBPROPERTIES
1002
{
1000
PbHidd
1002
}
  0
ELLIPSE
  5
1A7
330
1F
100
AcDbEntity
  8
HIDDEN
100
AcDbEllipse
 10
-161.7
 20
-0.0000000000000028
 30
0.0
 11
9.528951747103536
 21
-23.84640592095676
 31
0.0
210
0.0
220
0.0
230
1.0
 40
0.634095093725718
 41
1.661253892960219
 42
1.876642305905854
1001
DBPROPERTIES
1002
{
1000
PbHidd
1002
}
  0
ELLIPSE
  5
1A8
330
1F
100
AcDbEntity
  8
HIDDEN
100
AcDbEllipse
 10
-190.446869819793
 20
0.0000000000000007
 30
0.0
 11
119.8688192807248
 21
24.5912505489504
 31
0.0
210
0.0
220
0.0
230
1.0
 40
0.0054730335081041
 41
-1.225598201698653
 42
-1.205507424787887
1001
DBPROPERTIES
1002
{
1000
PbHidd
1002
}
  0
ELLIPSE
  5
1A9
330
1F
100
AcDbEntity
  8
HIDDEN
100
AcDbEllipse
 10
-164.1721359549996
 20
-0.0000000000000025
 30
0.0
 11
9.528951747103536
 21
-23.84640592095676
 31
0.0
210
0.0
220
0.0
230
1.0
 40
0.634095093725718
 41
1.641163116049451
 42
1.677311267534231
1001
DBPROPERTIES
1002
{
1000
PbHidd
1002
}
  0
ELLIPSE
  5
1AA
330
1F
100
AcDbEntity
  8
HIDDEN
100
AcDbEllipse
 10
-159.3276071312652
 20
-5.394462123091924
 30
0.0
 11
-11.06104460103157
 21
18.81817306217095
 31
0.0
210
0.0
220
0.0
230
1.0
 40
0.3454915028125264
 41
-1.83647086004049
 42
-1.486385517098368
1001
DBPROPERTIES
1002
{
1000
PbHidd
1002
}
  0
LINE
  5
1AB
330
1F
100
AcDbEntity
  8
HIDDEN
100
AcDbLine
 10
-150.15
 20
-6.647943269170637
 30
0.0
 11
-150.15
 21
-15.89721118144204
 31
0.0
1001
DBPROPERTIES
1002
{
1000
PbHidd
1002
}
  0
ELLIPSE
  5
1AC
330
1F
100
AcDbEntity
  8
HIDDEN
100
AcDbEllipse
 10
-157.7095731425154
 20
-4.443405606796771
 30
0.0
 11
11.53131693165371
 21
-19.61824813854959
 31
0.0
210
0.0
220
0.0
230
1.0
 40
0.3454915028125264
 41
1.594273130010918
 42
2.486122251248546
1001
DBPROPERTIES
1002
{
1000
PbHidd
1002
}
  0
ELLIPSE
  5
1AD
330
1F
100
AcDbEntity
  8
HIDDEN
100
AcDbEllipse
 10
-159.3276071312652
 20
-2.060501179997198
 30
0.0
 11
-4.781703420978163
 21
21.2980200360886
 31
0.0
210
0.0
220
0.0
230
1.0
 40
0.5590169943749476
 41
-1.178968771579824
 42
0.0137442321146175
1001
DBPROPERTIES
1002
{
1000
PbHidd
1002
}
  0
ELLIPSE
  5
1AE
330
1F
100
AcDbEntity
  8
HIDDEN
100
AcDbEllipse
 10
-153.6734484157877
 20
0.8369793729886953
 30
0.0
 11
5.51169017495933
 21
23.20266979331548
 31
0.0
210
0.0
220
0.0
230
1.0
 40
0.7999147975988685
 41
0.7748341191090573
 42
0.867965688199943
1001
DBPROPERTIES
1002
{
1000
PbHidd
1002
}
  0
ELLIPSE
  5
1AF
330
1F
100
AcDbEntity
  8
HIDDEN
100
AcDbEllipse
 10
-157.7095731425154
 20
-1.697229915994518
 30
0.0
 11
4.985002737926724
 21
-22.2035285012723
 31
0.0
210
0.0
220
0.0
230
1.0
 40
0.5590169943749476
 41
2.159050678719268
 42
3.143624339709212
1001
DBPROPERTIES
1002
{
1000
PbHidd
1002
}
  0
ELLIPSE
  5
1B0
330
1F
100
AcDbEntity
  8
HIDDEN
100
AcDbEllipse
 10
-159.3276071312652
 20
2.060501179997193
 30
0.0
 11
4.78170342097817
 21
21.2980200360886
 31
0.0
210
0.0
220
0.0
230
1.0
 40
0.5590169943749475
 41
-0.4151595982320691
 42
0.7775534054623714
1001
DBPROPERTIES
1002
{
1000
PbHidd
1002
}
  0
ELLIPSE
  5
1B1
330
1F
100
AcDbEntity
  8
HIDDEN
100
AcDbEllipse
 10
-153.6734484157877
 20
-2.160244870087817
 30
0.0
 11
-12.4652161697828
 21
20.33128131631067
 31
0.0
210
0.0
220
0.0
230
1.0
 40
0.728667459455677
 41
-0.2133182872800451
 42
-0.1201867181891611
1001
DBPROPERTIES
1002
{
1000
PbHidd
1002
}
  0
ELLIPSE
  5
1B2
330
1F
100
AcDbEntity
  8
HIDDEN
100
AcDbEllipse
 10
-157.7095731425154
 20
1.697229915994512
 30
0.0
 11
-4.985002737926732
 21
-22.2035285012723
 31
0.0
210
0.0
220
0.0
230
1.0
 40
0.5590169943749475
 41
2.92285985206702
 42
3.907433513056966
1001
DBPROPERTIES
1002
{
1000
PbHidd
1002
}
  0
ELLIPSE
  5
1B3
330
1F
100
AcDbEntity
  8
HIDDEN
100
AcDbEllipse
 10
-159.3276071312652
 20
5.394462123091921
 30
0.0
 11
11.06104460103157
 21
18.81817306217094
 31
0.0
210
0.0
220
0.0
230
1.0
 40
0.3454915028125264
 41
0.2423424902285942
 42
1.435055493923039
1001
DBPROPERTIES
1002
{
1000
PbHidd
1002
}
  0
ELLIPSE
  5
1B4
330
1F
100
AcDbEntity
  8
HIDDEN
100
AcDbEllipse
 10
-153.6734484157877
 20
-4.332328996813388
 30
0.0
 11
-18.50184558053095
 21
15.04740257441681
 31
0.0
210
0.0
220
0.0
230
1.0
 40
0.3790939182964527
 41
-0.7855641251389308
 42
-0.6924325560480454
1001
DBPROPERTIES
1002
{
1000
PbHidd
1002
}
  0
ELLIPSE
  5
1B5
330
1F
100
AcDbEntity
  8
HIDDEN
100
AcDbEllipse
 10
-157.7095731425154
 20
4.443405606796766
 30
0.0
 11
-11.53131693165372
 21
-19.61824813854959
 31
0.0
210
0.0
220
0.0
230
1.0
 40
0.3454915028125264
 41
-2.702823366651899
 42
-1.718249705661954
1001
DBPROPERTIES
1002
{
1000
PbHidd
1002
}
  0
LINE
  5
1B6
330
1F
100
AcDbEntity
  8
HIDDEN
100
AcDbLine
 10
-150.15
 20
19.2998144148502
 30
0.0
 11
-164.2724919772495
 21
-0.1381282146352243
 31
0.0
1001
DBPROPERTIES
1002
{
1000
PbHidd
1002
}
  0
ELLIPSE
  5
1B7
330
1F
100
AcDbEntity
  8
HIDDEN
100
AcDbEllipse
 10
-153.6734484157877
 20
-4.849610697202979
 30
0.0
 11
-19.29370036192417
 21
14.01769383553034
 31
0.0
210
0.0
220
0.0
230
1.0
 40
0.1152806147236408
 41
1.075060587640014
 42
1.168192156730898
1001
DBPROPERTIES
1002
{
1000
PbHidd
1002
}
  0
LINE
  5
1B8
330
1F
100
AcDbEntity
  8
HIDDEN
100
AcDbLine
 10
-162.7197831670726
 20
-1.403611113959509
 30
0.0
 11
-150.15
 21
15.89721118144203
 31
0.0
1001
DBPROPERTIES
1002
{
1000
PbHidd
1002
}
  0
ELLIPSE
  5
1B9
330
1F
100
AcDbEntity
  8
HIDDEN
100
AcDbEllipse
 10
-159.3276071312652
 20
5.394462123091918
 30
0.0
 11
11.06104460103157
 21
18.81817306217093
 31
0.0
210
0.0
220
0.0
230
1.0
 40
0.3454915028125264
 41
-2.497834797243744
 42
-1.305121793549303
1001
DBPROPERTIES
1002
{
1000
PbHidd
1002
}
  0
ELLIPSE
  5
1BA
330
1F
100
AcDbEntity
  8
HIDDEN
100
AcDbEllipse
 10
-153.6734484157877
 20
-3.51450594346611
 30
0.0
 11
-16.84187222439407
 21
16.88472546710671
 31
0.0
210
0.0
220
0.0
230
1.0
 40
0.5656218711632851
 41
1.507346844204967
 42
1.600478413295852
1001
DBPROPERTIES
1002
{
1000
PbHidd
1002
}
  0
ELLIPSE
  5
1BB
330
1F
100
AcDbEntity
  8
HIDDEN
100
AcDbEllipse
 10
-157.7095731425154
 20
4.443405606796765
 30
0.0
 11
-11.53131693165372
 21
-19.61824813854959
 31
0.0
210
0.0
220
0.0
230
1.0
 40
0.3454915028125265
 41
0.6554704023412472
 42
1.640044063331191
1001
DBPROPERTIES
1002
{
1000
PbHidd
1002
}
  0
LINE
  5
1BC
330
1F
100
AcDbEntity
  8
HIDDEN
100
AcDbLine
 10
-150.15
 20
-8.543216250051055
 30
0.0
 11
-150.15
 21
-0.0000000000000073
 31
0.0
1001
DBPROPERTIES
1002
{
1000
PbHidd
1002
}
  0
ELLIPSE
  5
1BD
330
1F
100
AcDbEntity
  8
HIDDEN
100
AcDbEllipse
 10
-159.3276071312652
 20
2.060501179997192
 30
0.0
 11
4.781703420978167
 21
21.2980200360886
 31
0.0
210
0.0
220
0.0
230
1.0
 40
0.5590169943749476
 41
3.127848421475176
 42
4.320561425169616
1001
DBPROPERTIES
1002
{
1000
PbHidd
1002
}
  0
ELLIPSE
  5
1BE
330
1F
100
AcDbEntity
  8
HIDDEN
100
AcDbEllipse
 10
-153.6734484157877
 20
-0.8369793729887026
 30
0.0
 11
-5.511690174959321
 21
23.20266979331548
 31
0.0
210
0.0
220
0.0
230
1.0
 40
0.7999147975988685
 41
2.273626965389851
 42
2.366758534480736
1001
DBPROPERTIES
1002
{
1000
PbHidd
1002
}
  0
ELLIPSE
  5
1BF
330
1F
100
AcDbEntity
  8
HIDDEN
100
AcDbEllipse
 10
-157.7095731425154
 20
1.697229915994511
 30
0.0
 11
-4.985002737926729
 21
-22.2035285012723
 31
0.0
210
0.0
220
0.0
230
1.0
 40
0.5590169943749476
 41
-0.0020316861194189
 42
0.9825419748705252
1001
DBPROPERTIES
1002
{
1000
PbHidd
1002
}
  0
LINE
  5
1C0
330
1F
100
AcDbEntity
  8
HIDDEN
100
AcDbLine
 10
-150.15
 20
-20.47115753499363
 30
0.0
 11
-150.15
 21
-12.94200859483164
 31
0.0
1001
DBPROPERTIES
1002
{
1000
PbHidd
1002
}
  0
ELLIPSE
  5
1C1
330
1F
100
AcDbEntity
  8
HIDDEN
100
AcDbEllipse
 10
-159.3276071312652
 20
-2.0605011799972
 30
0.0
 11
-4.781703420978167
 21
21.2980200360886
 31
0.0
210
0.0
220
0.0
230
1.0
 40
0.5590169943749476
 41
2.364039248127422
 42
3.556752251821862
1001
DBPROPERTIES
1002
{
1000
PbHidd
1002
}
  0
ELLIPSE
  5
1C2
330
1F
100
AcDbEntity
  8
HIDDEN
100
AcDbEllipse
 10
-153.6734484157877
 20
2.16024487008781
 30
0.0
 11
12.46521616978281
 21
20.33128131631067
 31
0.0
210
0.0
220
0.0
230
1.0
 40
0.7286674594556769
 41
-3.021405935400633
 42
-2.928274366309749
1001
DBPROPERTIES
1002
{
1000
PbHidd
1002
}
  0
ELLIPSE
  5
1C3
330
1F
100
AcDbEntity
  8
HIDDEN
100
AcDbEllipse
 10
-157.7095731425154
 20
-1.69722991599452
 30
0.0
 11
4.985002737926728
 21
-22.2035285012723
 31
0.0
210
0.0
220
0.0
230
1.0
 40
0.5590169943749476
 41
-0.7658408594671732
 42
-0.2824585272038506
1001
DBPROPERTIES
1002
{
1000
PbHidd
1002
}
  0
ELLIPSE
  5
1C4
330
1F
100
AcDbEntity
  8
HIDDEN
100
AcDbEllipse
 10
-157.7095731425154
 20
-1.69722991599452
 30
0.0
 11
4.985002737926728
 21
-22.2035285012723
 31
0.0
210
0.0
220
0.0
230
1.0
 40
0.5590169943749476
 41
-0.2824585272038506
 42
0.2187328015227715
1001
DBPROPERTIES
1002
{
1000
PbHidd
1002
}
  0
LINE
  5
1C5
330
1F
100
AcDbEntity
  8
HIDDEN
100
AcDbLine
 10
-150.15
 20
-24.6
 30
0.0
 11
-150.15
 21
-22.7670254312977
 31
0.0
1001
DBPROPERTIES
1002
{
1000
PbHidd
1002
}
  0
ELLIPSE
  5
1C6
330
1F
100
AcDbEntity
  8
HIDDEN
100
AcDbEllipse
 10
-159.3276071312652
 20
-5.394462123091928
 30
0.0
 11
-11.06104460103156
 21
18.81817306217094
 31
0.0
210
0.0
220
0.0
230
1.0
 40
0.3454915028125262
 41
1.706537159666754
 42
2.8992501633612
1001
DBPROPERTIES
1002
{
1000
PbHidd
1002
}
  0
ELLIPSE
  5
1C7
330
1F
100
AcDbEntity
  8
HIDDEN
100
AcDbEllipse
 10
-153.6734484157877
 20
4.332328996813379
 30
0.0
 11
18.50184558053095
 21
15.0474025744168
 31
0.0
210
0.0
220
0.0
230
1.0
 40
0.3790939182964527
 41
-2.449160097541748
 42
-2.356028528450862
1001
DBPROPERTIES
1002
{
1000
PbHidd
1002
}
  0
ELLIPSE
  5
1C8
330
1F
100
AcDbEntity
  8
HIDDEN
100
AcDbEllipse
 10
-157.7095731425154
 20
-4.443405606796773
 30
0.0
 11
11.53131693165371
 21
-19.61824813854959
 31
0.0
210
0.0
220
0.0
230
1.0
 40
0.3454915028125262
 41
-1.423342947927839
 42
-0.4387692869378945
1001
DBPROPERTIES
1002
{
1000
PbHidd
1002
}
  0
LINE
  5
1C9
330
1F
100
AcDbEntity
  8
HIDDEN
100
AcDbLine
 10
-150.15
 20
-19.29981441485021
 30
0.0
 11
-150.15
 21
-23.89581237574127
 31
0.0
1001
DBPROPERTIES
1002
{
1000
PbHidd
1002
}
  0
ELLIPSE
  5
1CA
330
1F
100
AcDbEntity
  8
HIDDEN
100
AcDbEllipse
 10
-153.6734484157877
 20
4.84961069720297
 30
0.0
 11
19.29370036192418
 21
14.01769383553034
 31
0.0
210
0.0
220
0.0
230
1.0
 40
0.1152806147236408
 41
1.973400496858894
 42
2.066532065949779
1001
DBPROPERTIES
1002
{
1000
PbHidd
1002
}
  0
ELLIPSE
  5
1CB
330
1F
100
AcDbEntity
  8
HIDDEN
100
AcDbEllipse
 10
-159.3276071312652
 20
-5.394462123091924
 30
0.0
 11
-11.06104460103157
 21
18.81817306217095
 31
0.0
210
0.0
220
0.0
230
1.0
 40
0.3454915028125264
 41
-1.486385517098368
 42
-0.6437578563460487
1001
DBPROPERTIES
1002
{
1000
PbHidd
1002
}
  0
ELLIPSE
  5
1CC
330
1F
100
AcDbEntity
  8
HIDDEN
100
AcDbEllipse
 10
-153.6734484157877
 20
3.514505943466102
 30
0.0
 11
16.84187222439407
 21
16.8847254671067
 31
0.0
210
0.0
220
0.0
230
1.0
 40
0.5656218711632851
 41
1.54111424029394
 42
1.634245809384826
1001
DBPROPERTIES
1002
{
1000
PbHidd
1002
}
  0
LINE
  5
1CD
330
1F
100
AcDbEntity
  8
HIDDEN
100
AcDbLine
 10
-164.2724919772495
 20
-11.95085992409202
 30
0.0
 11
-165.8741396560812
 21
-27.53516185858214
 31
0.0
1001
DBPROPERTIES
1002
{
1000
PbHidd
1002
}
  0
LINE
  5
1CE
330
1F
100
AcDbEntity
  8
HIDDEN
100
AcDbLine
 10
-136.8224058317465
 20
17.19587276554993
 30
0.0
 11
-149.7586354710781
 21
7.499571900716658
 31
0.0
1001
DBPROPERTIES
1002
{
1000
PbHidd
1002
}
  0
ELLIPSE
  5
1CF
330
1F
100
AcDbEntity
  8
HIDDEN
100
AcDbEllipse
 10
-163.3180339887499
 20
-2.663822785303556
 30
0.0
 11
-24.30792703500742
 21
-41.35511556338292
 31
0.0
210
0.0
220
0.0
230
1.0
 40
0.3454915028125265
 41
1.039406675134543
 42
2.261137151530574
1001
DBPROPERTIES
1002
{
1000
PbHidd
1002
}
  0
ELLIPSE
  5
1D0
330
1F
100
AcDbEntity
  8
HIDDEN
100
AcDbEllipse
 10
-163.3180339887499
 20
-27.24500203617479
 30
0.0
 11
-3.116400901924028
 21
-5.301937892741399
 31
0.0
210
0.0
220
0.0
230
1.0
 40
0.3454915028125265
 41
-1.316787815057803
 42
0.000061842898103
1001
DBPROPERTIES
1002
{
1000
PbHidd
1002
}
  0
ELLIPSE
  5
1D1
330
1F
100
AcDbEntity
  8
HIDDEN
100
AcDbEllipse
 10
-163.3180339887499
 20
-27.24500203617479
 30
0.0
 11
-3.116400901924028
 21
-5.301937892741399
 31
0.0
210
0.0
220
0.0
230
1.0
 40
0.3454915028125265
 41
0.000061842898103
 42
1.039406675134543
1001
DBPROPERTIES
1002
{
1000
PbHidd
1002
}
  0
LINE
  5
1D2
330
1F
100
AcDbEntity
  8
HIDDEN
100
AcDbLine
 10
-147.5017234541458
 20
7.02738393808057
 30
0.0
 11
-135.2043718429966
 21
16.24481624925476
 31
0.0
1001
DBPROPERTIES
1002
{
1000
PbHidd
1002
}
  0
LINE
  5
1D3
330
1F
100
AcDbEntity
  8
HIDDEN
100
AcDbLine
 10
-135.2043718429966
 20
16.24481624925477
 30
0.0
 11
-136.8224058317465
 21
17.19587276554993
 31
0.0
1001
DBPROPERTIES
1002
{
1000
PbHidd
1002
}
  0
LINE
  5
1D4
330
1F
100
AcDbEntity
  8
HIDDEN
100
AcDbLine
 10
-164.2561056673314
 20
-28.48621837487729
 30
0.0
 11
-162.7197831670726
 21
-13.53754144097883
 31
0.0
1001
DBPROPERTIES
1002
{
1000
PbHidd
1002
}
  0
LINE
  5
1D5
330
1F
100
AcDbEntity
  8
HIDDEN
100
AcDbLine
 10
-164.2561056673314
 20
-28.48621837487729
 30
0.0
 11
-165.8741396560813
 21
-27.53516185858214
 31
0.0
1001
DBPROPERTIES
1002
{
1000
PbHidd
1002
}
  0
LINE
  5
1D6
330
1F
100
AcDbEntity
  8
HIDDEN
100
AcDbLine
 10
-161.7
 20
-31.81093785406865
 30
0.0
 11
-163.3180339887499
 21
-30.85988133777349
 31
0.0
1001
DBPROPERTIES
1002
{
1000
PbHidd
1002
}
  0
ELLIPSE
  5
1D7
330
1F
100
AcDbEntity
  8
HIDDEN
100
AcDbEllipse
 10
-161.7
 20
-28.19605855246994
 30
0.0
 11
3.116400901924028
 21
5.301937892741399
 31
0.0
210
0.0
220
0.0
230
1.0
 40
0.3454915028125265
 41
-3.141530810691691
 42
-2.10218597845525
1001
DBPROPERTIES
1002
{
1000
PbHidd
1002
}
  0
ELLIPSE
  5
1D8
330
1F
100
AcDbEntity
  8
HIDDEN
100
AcDbEllipse
 10
-161.7
 20
-28.19605855246994
 30
0.0
 11
3.116400901924028
 21
5.301937892741399
 31
0.0
210
0.0
220
0.0
230
1.0
 40
0.3454915028125265
 41
1.82480483853199
 42
3.141654496487895
1001
DBPROPERTIES
1002
{
1000
PbHidd
1002
}
  0
ELLIPSE
  5
1D9
330
1F
100
AcDbEntity
  8
HIDDEN
100
AcDbEllipse
 10
-161.7
 20
-3.614879301598709
 30
0.0
 11
24.30792703500742
 21
41.35511556338292
 31
0.0
210
0.0
220
0.0
230
1.0
 40
0.3454915028125265
 41
-2.10218597845525
 42
-0.88045550205922
1001
DBPROPERTIES
1002
{
1000
PbHidd
1002
}
  0
LINE
  5
1DA
330
1F
100
AcDbEntity
  8
HIDDEN
100
AcDbLine
 10
-150.15
 20
-0.0000000000000042
 30
0.0
 11
-150.15
 21
-1.826415642166826
 31
0.0
1001
DBPROPERTIES
1002
{
1000
PbHidd
1002
}
  0
ELLIPSE
  5
1DB
330
1F
100
AcDbEntity
  8
HIDDEN
100
AcDbEllipse
 10
-157.7095731425154
 20
-4.443405606796771
 30
0.0
 11
11.53131693165371
 21
-19.61824813854959
 31
0.0
210
0.0
220
0.0
230
1.0
 40
0.3454915028125264
 41
1.501548590258602
 42
1.594273130010918
1001
DBPROPERTIES
1002
{
1000
PbHidd
1002
}
  0
LINE
  5
1DC
330
1F
100
AcDbEntity
  8
HIDDEN
100
AcDbLine
 10
-164.2724919772495
 20
-19.19876933733461
 30
0.0
 11
-165.8741396560812
 21
-42.21022065017181
 31
0.0
1001
DBPROPERTIES
1002
{
1000
PbHidd
1002
}
  0
ELLIPSE
  5
1DD
330
1F
100
AcDbEntity
  8
HIDDEN
100
AcDbEllipse
 10
-164.1721359549996
 20
-0.0000000000000025
 30
0.0
 11
-9.52895174710353
 21
-23.84640592095676
 31
0.0
210
0.0
220
0.0
230
1.0
 40
0.634095093725718
 41
1.464281386055562
 42
1.500429537540342
1001
DBPROPERTIES
1002
{
1000
PbHidd
1002
}
  0
LINE
  5
1DE
330
1F
100
AcDbEntity
  8
HIDDEN
100
AcDbLine
 10
-136.8224058317465
 20
-9.820167470532928
 30
0.0
 11
-149.7586354710781
 21
-7.703919240338823
 31
0.0
1001
DBPROPERTIES
1002
{
1000
PbHidd
1002
}
  0
ELLIPSE
  5
1DF
330
1F
100
AcDbEntity
  8
HIDDEN
100
AcDbEllipse
 10
-163.3180339887499
 20
-5.485726311212516
 30
0.0
 11
-10.50834727213219
 21
-46.80486660175705
 31
0.0
210
0.0
220
0.0
230
1.0
 40
0.5590169943749475
 41
0.381904586673877
 42
1.603635063069908
1001
DBPROPERTIES
1002
{
1000
PbHidd
1002
}
  0
ELLIPSE
  5
1E0
330
1F
100
AcDbEntity
  8
HIDDEN
100
AcDbEllipse
 10
-163.3180339887499
 20
-45.25890982267584
 30
0.0
 11
-1.347224009247717
 21
-6.000623923302187
 31
0.0
210
0.0
220
0.0
230
1.0
 40
0.5590169943749475
 41
-1.974289903518469
 42
0.000000459587125
1001
DBPROPERTIES
1002
{
1000
PbHidd
1002
}
  0
ELLIPSE
  5
1E1
330
1F
100
AcDbEntity
  8
HIDDEN
100
AcDbEllipse
 10
-163.3180339887499
 20
-45.25890982267584
 30
0.0
 11
-1.347224009247717
 21
-6.000623923302187
 31
0.0
210
0.0
220
0.0
230
1.0
 40
0.5590169943749475
 41
0.0000004595871251
 42
0.3819045866738771
1001
DBPROPERTIES
1002
{
1000
PbHidd
1002
}
  0
ELLIPSE
  5
1E2
330
1F
100
AcDbEntity
  8
HIDDEN
100
AcDbEllipse
 10
-190.446869819793
 20
0.0000000000000007
 30
0.0
 11
-119.8688192807248
 21
24.59125054895043
 31
0.0
210
0.0
220
0.0
230
1.0
 40
0.0054730335081041
 41
-1.93608522880191
 42
-1.915994451891138
1001
DBPROPERTIES
1002
{
1000
PbHidd
1002
}
  0
LINE
  5
1E3
330
1F
100
AcDbEntity
  8
HIDDEN
100
AcDbLine
 10
-147.5017234541458
 20
-8.1717050757542
 30
0.0
 11
-135.2043718429966
 21
-10.18343873453561
 31
0.0
1001
DBPROPERTIES
1002
{
1000
PbHidd
1002
}
  0
LINE
  5
1E4
330
1F
100
AcDbEntity
  8
HIDDEN
100
AcDbLine
 10
-135.2043718429966
 20
-10.18343873453561
 30
0.0
 11
-136.8224058317465
 21
-9.82016747053293
 31
0.0
1001
DBPROPERTIES
1002
{
1000
PbHidd
1002
}
  0
LINE
  5
1E5
330
1F
100
AcDbEntity
  8
HIDDEN
100
AcDbLine
 10
-164.2561056673314
 20
-42.5734919141745
 30
0.0
 11
-162.7197831670726
 21
-20.50059106165443
 31
0.0
1001
DBPROPERTIES
1002
{
1000
PbHidd
1002
}
  0
LINE
  5
1E6
330
1F
100
AcDbEntity
  8
HIDDEN
100
AcDbLine
 10
-164.2561056673314
 20
-42.5734919141745
 30
0.0
 11
-165.8741396560813
 21
-42.21022065017182
 31
0.0
1001
DBPROPERTIES
1002
{
1000
PbHidd
1002
}
  0
LINE
  5
1E7
330
1F
100
AcDbEntity
  8
HIDDEN
100
AcDbLine
 10
-161.7
 20
-51.47117866189372
 30
0.0
 11
-163.3180339887499
 21
-51.10790739789104
 31
0.0
1001
DBPROPERTIES
1002
{
1000
PbHidd
1002
}
  0
ELLIPSE
  5
1E8
330
1F
100
AcDbEntity
  8
HIDDEN
100
AcDbEllipse
 10
-161.7
 20
-45.62218108667852
 30
0.0
 11
1.347224009247717
 21
6.000623923302187
 31
0.0
210
0.0
220
0.0
230
1.0
 40
0.5590169943749475
 41
-3.141592194002668
 42
-2.759688066915917
1001
DBPROPERTIES
1002
{
1000
PbHidd
1002
}
  0
ELLIPSE
  5
1E9
330
1F
100
AcDbEntity
  8
HIDDEN
100
AcDbEllipse
 10
-161.7
 20
-45.62218108667852
 30
0.0
 11
1.347224009247717
 21
6.000623923302187
 31
0.0
210
0.0
220
0.0
230
1.0
 40
0.5590169943749475
 41
1.167302750071324
 42
3.141593113176918
1001
DBPROPERTIES
1002
{
1000
PbHidd
1002
}
  0
ELLIPSE
  5
1EA
330
1F
100
AcDbEntity
  8
HIDDEN
100
AcDbEllipse
 10
-161.7
 20
-5.848997575215196
 30
0.0
 11
10.50834727213219
 21
46.80486660175705
 31
0.0
210
0.0
220
0.0
230
1.0
 40
0.5590169943749475
 41
-2.759688066915917
 42
-1.537957590519886
1001
DBPROPERTIES
1002
{
1000
PbHidd
1002
}
  0
ELLIPSE
  5
1EB
330
1F
100
AcDbEntity
  8
HIDDEN
100
AcDbEllipse
 10
-161.7
 20
-0.0000000000000028
 30
0.0
 11
-9.52895174710353
 21
-23.84640592095676
 31
0.0
210
0.0
220
0.0
230
1.0
 40
0.634095093725718
 41
1.264950347683939
 42
1.480338760629573
1001
DBPROPERTIES
1002
{
1000
PbHidd
1002
}
  0
LINE
  5
1EC
330
1F
100
AcDbEntity
  8
HIDDEN
100
AcDbLine
 10
-164.2724919772495
 20
-19.11340140588471
 30
0.0
 11
-165.8741396560812
 21
-40.76240982602855
 31
0.0
1001
DBPROPERTIES
1002
{
1000
PbHidd
1002
}
  0
ELLIPSE
  5
1ED
330
1F
100
AcDbEntity
  8
HIDDEN
100
AcDbEllipse
 10
-164.1721359549996
 20
-0.0000000000000025
 30
0.0
 11
-9.528951747103539
 21
23.84640592095676
 31
0.0
210
0.0
220
0.0
230
1.0
 40
0.6340950937257178
 41
-2.801949067177292
 42
-2.765800915692513
1001
DBPROPERTIES
1002
{
1000
PbHidd
1002
}
  0
LINE
  5
1EE
330
1F
100
AcDbEntity
  8
HIDDEN
100
AcDbLine
 10
-136.8224058317465
 20
-33.08523750808828
 30
0.0
 11
-149.7586354710781
 21
-19.96477507816915
 31
0.0
1001
DBPROPERTIES
1002
{
1000
PbHidd
1002
}
  0
ELLIPSE
  5
1EF
330
1F
100
AcDbEntity
  8
HIDDEN
100
AcDbEllipse
 10
-163.3180339887499
 20
-6.212268839217879
 30
0.0
 11
10.50834727213219
 21
-46.80486660175705
 31
0.0
210
0.0
220
0.0
230
1.0
 40
0.5590169943749475
 41
-0.381904586673877
 42
-0.000000221283286
1001
DBPROPERTIES
1002
{
1000
PbHidd
1002
}
  0
ELLIPSE
  5
1F0
330
1F
100
AcDbEntity
  8
HIDDEN
100
AcDbEllipse
 10
-163.3180339887499
 20
-6.212268839217879
 30
0.0
 11
10.50834727213219
 21
-46.80486660175705
 31
0.0
210
0.0
220
0.0
230
1.0
 40
0.5590169943749475
 41
-0.000000221283286
 42
0.8398258897221538
1001
DBPROPERTIES
1002
{
1000
PbHidd
1002
}
  0
ELLIPSE
  5
1F1
330
1F
100
AcDbEntity
  8
HIDDEN
100
AcDbEllipse
 10
-163.3180339887499
 20
-45.9854523506812
 30
0.0
 11
1.347224009247717
 21
-6.000623923302185
 31
0.0
210
0.0
220
0.0
230
1.0
 40
0.5590169943749476
 41
-2.738099076866223
 42
-0.3819045866738771
1001
DBPROPERTIES
1002
{
1000
PbHidd
1002
}
  0
ELLIPSE
  5
1F2
330
1F
100
AcDbEntity
  8
HIDDEN
100
AcDbEllipse
 10
-190.4468698197931
 20
0.0000000000000007
 30
0.0
 11
119.8464980612051
 21
-20.56088703507194
 31
0.0
210
0.0
220
0.0
230
1.0
 40
0.1126935041327479
 41
-1.205144092237019
 42
-1.185053315326251
1001
DBPROPERTIES
1002
{
1000
PbHidd
1002
}
  0
LINE
  5
1F3
330
1F
100
AcDbEntity
  8
HIDDEN
100
AcDbLine
 10
-147.5017234541458
 20
-20.24948049669091
 30
0.0
 11
-135.2043718429966
 21
-32.72196624408559
 31
0.0
1001
DBPROPERTIES
1002
{
1000
PbHidd
1002
}
  0
LINE
  5
1F4
330
1F
100
AcDbEntity
  8
HIDDEN
100
AcDbLine
 10
-135.2043718429966
 20
-32.72196624408561
 30
0.0
 11
-136.8224058317465
 21
-33.08523750808829
 31
0.0
1001
DBPROPERTIES
1002
{
1000
PbHidd
1002
}
  0
LINE
  5
1F5
330
1F
100
AcDbEntity
  8
HIDDEN
100
AcDbLine
 10
-164.2561056673314
 20
-40.39913856202586
 30
0.0
 11
-162.7197831670726
 21
-19.63311168624037
 31
0.0
1001
DBPROPERTIES
1002
{
1000
PbHidd
1002
}
  0
LINE
  5
1F6
330
1F
100
AcDbEntity
  8
HIDDEN
100
AcDbLine
 10
-164.2561056673314
 20
-40.39913856202586
 30
0.0
 11
-165.8741396560813
 21
-40.76240982602854
 31
0.0
1001
DBPROPERTIES
1002
{
1000
PbHidd
1002
}
  0
LINE
  5
1F7
330
1F
100
AcDbEntity
  8
HIDDEN
100
AcDbLine
 10
-161.7
 20
-51.47117866189371
 30
0.0
 11
-163.3180339887499
 21
-51.83444992589639
 31
0.0
1001
DBPROPERTIES
1002
{
1000
PbHidd
1002
}
  0
ELLIPSE
  5
1F8
330
1F
100
AcDbEntity
  8
HIDDEN
100
AcDbEllipse
 10
-161.7
 20
-45.62218108667852
 30
0.0
 11
-1.347224009247717
 21
6.000623923302185
 31
0.0
210
0.0
220
0.0
230
1.0
 40
0.5590169943749476
 41
0.4034935767235706
 42
2.759688066915917
1001
DBPROPERTIES
1002
{
1000
PbHidd
1002
}
  0
ELLIPSE
  5
1F9
330
1F
100
AcDbEntity
  8
HIDDEN
100
AcDbEllipse
 10
-161.7
 20
-5.848997575215198
 30
0.0
 11
-10.50834727213219
 21
46.80486660175705
 31
0.0
210
0.0
220
0.0
230
1.0
 40
0.5590169943749475
 41
3.141592432306506
 42
3.981418543311946
1001
DBPROPERTIES
1002
{
1000
PbHidd
1002
}
  0
ELLIPSE
  5
1FA
330
1F
100
AcDbEntity
  8
HIDDEN
100
AcDbEllipse
 10
-161.7
 20
-5.848997575215198
 30
0.0
 11
-10.50834727213219
 21
46.80486660175705
 31
0.0
210
0.0
220
0.0
230
1.0
 40
0.5590169943749475
 41
2.759688066915917
 42
3.141592432306506
1001
DBPROPERTIES
1002
{
1000
PbHidd
1002
}
  0
ELLIPSE
  5
1FB
330
1F
100
AcDbEntity
  8
HIDDEN
100
AcDbEllipse
 10
-161.7
 20
-0.0000000000000028
 30
0.0
 11
-9.528951747103539
 21
23.84640592095676
 31
0.0
210
0.0
220
0.0
230
1.0
 40
0.6340950937257178
 41
-3.001280105548915
 42
-2.785891692603281
1001
DBPROPERTIES
1002
{
1000
PbHidd
1002
}
  0
LINE
  5
1FC
330
1F
100
AcDbEntity
  8
HIDDEN
100
AcDbLine
 10
-164.2724919772495
 20
-11.72736377800688
 30
0.0
 11
-165.8741396560812
 21
-23.74474391169505
 31
0.0
1001
DBPROPERTIES
1002
{
1000
PbHidd
1002
}
  0
ELLIPSE
  5
1FD
330
1F
100
AcDbEntity
  8
HIDDEN
100
AcDbEllipse
 10
-164.1721359549996
 20
-0.0000000000000025
 30
0.0
 11
-16.28600192132449
 21
24.09122389254528
 31
0.0
210
0.0
220
0.0
230
1.0
 40
0.3056146845806991
 41
2.897343979030426
 42
2.933492130515209
1001
DBPROPERTIES
1002
{
1000
PbHidd
1002
}
  0
LINE
  5
1FE
330
1F
100
AcDbEntity
  8
HIDDEN
100
AcDbLine
 10
-136.8224058317465
 20
-43.7128713434168
 30
0.0
 11
-149.7586354710781
 21
-24.5997654138857
 31
0.0
1001
DBPROPERTIES
1002
{
1000
PbHidd
1002
}
  0
ELLIPSE
  5
1FF
330
1F
100
AcDbEntity
  8
HIDDEN
100
AcDbEllipse
 10
-163.3180339887499
 20
-4.56593581789387
 30
0.0
 11
24.30792703500741
 21
-41.35511556338292
 31
0.0
210
0.0
220
0.0
230
1.0
 40
0.3454915028125262
 41
-1.039406675134543
 42
-0.0000039553441542
1001
DBPROPERTIES
1002
{
1000
PbHidd
1002
}
  0
ELLIPSE
  5
200
330
1F
100
AcDbEntity
  8
HIDDEN
100
AcDbEllipse
 10
-163.3180339887499
 20
-4.56593581789387
 30
0.0
 11
24.30792703500741
 21
-41.35511556338292
 31
0.0
210
0.0
220
0.0
230
1.0
 40
0.3454915028125262
 41
-0.0000039553441541
 42
0.1823238012614871
1001
DBPROPERTIES
1002
{
1000
PbHidd
1002
}
  0
ELLIPSE
  5
201
330
1F
100
AcDbEntity
  8
HIDDEN
100
AcDbEllipse
 10
-163.3180339887499
 20
-29.14711506876509
 30
0.0
 11
3.116400901924026
 21
-5.301937892741399
 31
0.0
210
0.0
220
0.0
230
1.0
 40
0.3454915028125262
 41
2.887584141852697
 42
3.141592753481685
1001
DBPROPERTIES
1002
{
1000
PbHidd
1002
}
  0
ELLIPSE
  5
202
330
1F
100
AcDbEntity
  8
HIDDEN
100
AcDbEllipse
 10
-163.3180339887499
 20
-29.14711506876509
 30
0.0
 11
3.116400901924026
 21
-5.301937892741399
 31
0.0
210
0.0
220
0.0
230
1.0
 40
0.3454915028125262
 41
-3.141592553697901
 42
-1.039406675134543
1001
DBPROPERTIES
1002
{
1000
PbHidd
1002
}
  0
ELLIPSE
  5
203
330
1F
100
AcDbEntity
  8
HIDDEN
100
AcDbEllipse
 10
-190.446869819793
 20
0.0000000000000007
 30
0.0
 11
119.8575622434319
 21
-8.566973848807073
 31
0.0
210
0.0
220
0.0
230
1.0
 40
0.1923956436423628
 41
-1.210724541928257
 42
-1.190633765017488
1001
DBPROPERTIES
1002
{
1000
PbHidd
1002
}
  0
LINE
  5
204
330
1F
100
AcDbEntity
  8
HIDDEN
100
AcDbLine
 10
-147.5017234541458
 20
-24.59264262241979
 30
0.0
 11
-135.2043718429966
 21
-42.76181482712163
 31
0.0
1001
DBPROPERTIES
1002
{
1000
PbHidd
1002
}
  0
LINE
  5
205
330
1F
100
AcDbEntity
  8
HIDDEN
100
AcDbLine
 10
-135.2043718429966
 20
-42.76181482712166
 30
0.0
 11
-136.8224058317465
 21
-43.71287134341681
 31
0.0
1001
DBPROPERTIES
1002
{
1000
PbHidd
1002
}
  0
LINE
  5
206
330
1F
100
AcDbEntity
  8
HIDDEN
100
AcDbLine
 10
-164.2561056673314
 20
-22.7936873953999
 30
0.0
 11
-162.7197831670726
 21
-11.26645095160525
 31
0.0
1001
DBPROPERTIES
1002
{
1000
PbHidd
1002
}
  0
LINE
  5
207
330
1F
100
AcDbEntity
  8
HIDDEN
100
AcDbLine
 10
-164.2561056673314
 20
-22.7936873953999
 30
0.0
 11
-165.8741396560813
 21
-23.74474391169506
 31
0.0
1001
DBPROPERTIES
1002
{
1000
PbHidd
1002
}
  0
LINE
  5
208
330
1F
100
AcDbEntity
  8
HIDDEN
100
AcDbLine
 10
-161.7
 20
-31.81093785406865
 30
0.0
 11
-163.3180339887499
 21
-32.7619943703638
 31
0.0
1001
DBPROPERTIES
1002
{
1000
PbHidd
1002
}
  0
ELLIPSE
  5
209
330
1F
100
AcDbEntity
  8
HIDDEN
100
AcDbEllipse
 10
-161.7
 20
-28.19605855246994
 30
0.0
 11
-3.116400901924026
 21
5.301937892741399
 31
0.0
210
0.0
220
0.0
230
1.0
 40
0.3454915028125262
 41
0.0000000998918914
 42
2.10218597845525
1001
DBPROPERTIES
1002
{
1000
PbHidd
1002
}
  0
ELLIPSE
  5
20A
330
1F
100
AcDbEntity
  8
HIDDEN
100
AcDbEllipse
 10
-161.7
 20
-28.19605855246994
 30
0.0
 11
-3.116400901924026
 21
5.301937892741399
 31
0.0
210
0.0
220
0.0
230
1.0
 40
0.3454915028125262
 41
-0.2540085117370956
 42
0.0000000998918914
1001
DBPROPERTIES
1002
{
1000
PbHidd
1002
}
  0
ELLIPSE
  5
20B
330
1F
100
AcDbEntity
  8
HIDDEN
100
AcDbEllipse
 10
-161.7
 20
-3.614879301598717
 30
0.0
 11
-24.30792703500741
 21
41.35511556338292
 31
0.0
210
0.0
220
0.0
230
1.0
 40
0.3454915028125262
 41
3.141588698245639
 42
3.32391645485128
1001
DBPROPERTIES
1002
{
1000
PbHidd
1002
}
  0
ELLIPSE
  5
20C
330
1F
100
AcDbEntity
  8
HIDDEN
100
AcDbEllipse
 10
-161.7
 20
-3.614879301598717
 30
0.0
 11
-24.30792703500741
 21
41.35511556338292
 31
0.0
210
0.0
220
0.0
230
1.0
 40
0.3454915028125262
 41
2.10218597845525
 42
3.141588698245639
1001
DBPROPERTIES
1002
{
1000
PbHidd
1002
}
  0
ELLIPSE
  5
20D
330
1F
100
AcDbEntity
  8
HIDDEN
100
AcDbEllipse
 10
-161.7
 20
-0.0000000000000028
 30
0.0
 11
-16.28600192132449
 21
24.09122389254528
 31
0.0
210
0.0
220
0.0
230
1.0
 40
0.3056146845806991
 41
2.698012940658804
 42
2.913401353604438
1001
DBPROPERTIES
1002
{
1000
PbHidd
1002
}
  0
LINE
  5
20E
330
1F
100
AcDbEntity
  8
HIDDEN
100
AcDbLine
 10
-163.3180339887499
 20
-1.175570504584954
 30
0.0
 11
-136.8224058317465
 21
-37.64367407141139
 31
0.0
1001
DBPROPERTIES
1002
{
1000
PbHidd
1002
}
  0
LINE
  5
20F
330
1F
100
AcDbEntity
  8
HIDDEN
100
AcDbLine
 10
-166.9329132903482
 20
3.799884010820334
 30
0.0
 11
-163.3180339887499
 21
-1.175570504584952
 31
0.0
1001
DBPROPERTIES
1002
{
1000
PbHidd
1002
}
  0
ELLIPSE
  5
210
330
1F
100
AcDbEntity
  8
HIDDEN
100
AcDbEllipse
 10
-190.446869819793
 20
0.0000000000000007
 30
0.0
 11
119.8605089507751
 21
7.22733049308189
 31
0.0
210
0.0
220
0.0
230
1.0
 40
0.1961811465503411
 41
-1.236304150750956
 42
-1.216213373840187
1001
DBPROPERTIES
1002
{
1000
PbHidd
1002
}
  0
LINE
  5
211
330
1F
100
AcDbEntity
  8
HIDDEN
100
AcDbLine
 10
-135.2043718429966
 20
-36.46810356682644
 30
0.0
 11
-136.8224058317465
 21
-37.64367407141139
 31
0.0
1001
DBPROPERTIES
1002
{
1000
PbHidd
1002
}
  0
LINE
  5
212
330
1F
100
AcDbEntity
  8
HIDDEN
100
AcDbLine
 10
-164.2561056673313
 20
3.518177627328747
 30
0.0
 11
-165.8741396560812
 21
2.342607122743801
 31
0.0
1001
DBPROPERTIES
1002
{
1000
PbHidd
1002
}
  0
LINE
  5
213
330
1F
100
AcDbEntity
  8
HIDDEN
100
AcDbLine
 10
-161.7
 20
-0.0000000000000074
 30
0.0
 11
-163.3180339887499
 21
-1.175570504584953
 31
0.0
1001
DBPROPERTIES
1002
{
1000
PbHidd
1002
}
  0
LINE
  5
214
330
1F
100
AcDbEntity
  8
HIDDEN
100
AcDbLine
 10
-161.7
 20
-0.0000000000000062
 30
0.0
 11
-165.3148793015982
 21
4.97545451540528
 31
0.0
1001
DBPROPERTIES
1002
{
1000
PbHidd
1002
}
  0
LINE
  5
215
330
1F
100
AcDbEntity
  8
HIDDEN
100
AcDbLine
 10
-135.2043718429966
 20
-36.46810356682644
 30
0.0
 11
-161.7
 21
-0.0000000000000074
 31
0.0
1001
DBPROPERTIES
1002
{
1000
PbHidd
1002
}
  0
ELLIPSE
  5
216
330
1F
100
AcDbEntity
  8
HIDDEN
100
AcDbEllipse
 10
-164.1721359549996
 20
-0.0000000000000025
 30
0.0
 11
16.28600192132449
 21
-24.09122389254528
 31
0.0
210
0.0
220
0.0
230
1.0
 40
0.3056146845806993
 41
1.057270855077585
 42
1.093419006562366
1001
DBPROPERTIES
1002
{
1000
PbHidd
1002
}
  0
LINE
  5
217
330
1F
100
AcDbEntity
  8
HIDDEN
100
AcDbLine
 10
-136.8224058317465
 20
-17.19587276554994
 30
0.0
 11
-149.7586354710781
 21
-7.499571900716671
 31
0.0
1001
DBPROPERTIES
1002
{
1000
PbHidd
1002
}
  0
ELLIPSE
  5
218
330
1F
100
AcDbEntity
  8
HIDDEN
100
AcDbEllipse
 10
-163.3180339887499
 20
2.663822785303549
 30
0.0
 11
24.30792703500741
 21
-41.35511556338292
 31
0.0
210
0.0
220
0.0
230
1.0
 40
0.3454915028125264
 41
0.8804555020592193
 42
2.102185978455251
1001
DBPROPERTIES
1002
{
1000
PbHidd
1002
}
  0
ELLIPSE
  5
219
330
1F
100
AcDbEntity
  8
HIDDEN
100
AcDbEllipse
 10
-163.3180339887499
 20
27.24500203617477
 30
0.0
 11
3.116400901924027
 21
-5.3019378927414
 31
0.0
210
0.0
220
0.0
230
1.0
 40
0.3454915028125264
 41
3.141530810691691
 42
4.458380468647596
1001
DBPROPERTIES
1002
{
1000
PbHidd
1002
}
  0
ELLIPSE
  5
21A
330
1F
100
AcDbEntity
  8
HIDDEN
100
AcDbEllipse
 10
-163.3180339887499
 20
27.24500203617477
 30
0.0
 11
3.116400901924027
 21
-5.3019378927414
 31
0.0
210
0.0
220
0.0
230
1.0
 40
0.3454915028125264
 41
2.10218597845525
 42
3.141530810691691
1001
DBPROPERTIES
1002
{
1000
PbHidd
1002
}
  0
LINE
  5
21B
330
1F
100
AcDbEntity
  8
HIDDEN
100
AcDbLine
 10
-164.2724919772495
 20
11.95085992409201
 30
0.0
 11
-165.8741396560812
 21
27.53516185858212
 31
0.0
1001
DBPROPERTIES
1002
{
1000
PbHidd
1002
}
  0
ELLIPSE
  5
21C
330
1F
100
AcDbEntity
  8
HIDDEN
100
AcDbEllipse
 10
-190.446869819793
 20
0.0000000000000007
 30
0.0
 11
119.8446076653829
 21
19.79041894289054
 31
0.0
210
0.0
220
0.0
230
1.0
 40
0.1219213458618125
 41
-1.244606041251369
 42
-1.224515264340601
1001
DBPROPERTIES
1002
{
1000
PbHidd
1002
}
  0
LINE
  5
21D
330
1F
100
AcDbEntity
  8
HIDDEN
100
AcDbLine
 10
-147.5017234541457
 20
-7.027383938080584
 30
0.0
 11
-135.2043718429966
 21
-16.24481624925478
 31
0.0
1001
DBPROPERTIES
1002
{
1000
PbHidd
1002
}
  0
LINE
  5
21E
330
1F
100
AcDbEntity
  8
HIDDEN
100
AcDbLine
 10
-135.2043718429966
 20
-16.24481624925479
 30
0.0
 11
-136.8224058317465
 21
-17.19587276554994
 31
0.0
1001
DBPROPERTIES
1002
{
1000
PbHidd
1002
}
  0
LINE
  5
21F
330
1F
100
AcDbEntity
  8
HIDDEN
100
AcDbLine
 10
-164.2561056673313
 20
28.48621837487728
 30
0.0
 11
-162.7197831670726
 21
13.53754144097882
 31
0.0
1001
DBPROPERTIES
1002
{
1000
PbHidd
1002
}
  0
LINE
  5
220
330
1F
100
AcDbEntity
  8
HIDDEN
100
AcDbLine
 10
-164.2561056673313
 20
28.48621837487728
 30
0.0
 11
-165.8741396560812
 21
27.53516185858212
 31
0.0
1001
DBPROPERTIES
1002
{
1000
PbHidd
1002
}
  0
LINE
  5
221
330
1F
100
AcDbEntity
  8
HIDDEN
100
AcDbLine
 10
-161.7
 20
31.81093785406863
 30
0.0
 11
-163.3180339887499
 21
30.85988133777348
 31
0.0
1001
DBPROPERTIES
1002
{
1000
PbHidd
1002
}
  0
ELLIPSE
  5
222
330
1F
100
AcDbEntity
  8
HIDDEN
100
AcDbEllipse
 10
-161.7
 20
28.19605855246992
 30
0.0
 11
-3.116400901924027
 21
5.3019378927414
 31
0.0
210
0.0
220
0.0
230
1.0
 40
0.3454915028125264
 41
-1.039406675134543
 42
-0.0000618428981016
1001
DBPROPERTIES
1002
{
1000
PbHidd
1002
}
  0
ELLIPSE
  5
223
330
1F
100
AcDbEntity
  8
HIDDEN
100
AcDbEllipse
 10
-161.7
 20
28.19605855246992
 30
0.0
 11
-3.116400901924027
 21
5.3019378927414
 31
0.0
210
0.0
220
0.0
230
1.0
 40
0.3454915028125264
 41
-0.0000618428981015
 42
1.316787815057803
1001
DBPROPERTIES
1002
{
1000
PbHidd
1002
}
  0
ELLIPSE
  5
224
330
1F
100
AcDbEntity
  8
HIDDEN
100
AcDbEllipse
 10
-161.7
 20
3.614879301598702
 30
0.0
 11
-24.30792703500741
 21
41.35511556338292
 31
0.0
210
0.0
220
0.0
230
1.0
 40
0.3454915028125264
 41
-2.261137151530574
 42
-1.039406675134543
1001
DBPROPERTIES
1002
{
1000
PbHidd
1002
}
  0
ELLIPSE
  5
225
330
1F
100
AcDbEntity
  8
HIDDEN
100
AcDbEllipse
 10
-161.7
 20
-0.0000000000000028
 30
0.0
 11
16.28600192132449
 21
-24.09122389254528
 31
0.0
210
0.0
220
0.0
230
1.0
 40
0.3056146845806993
 41
1.077361631988354
 42
1.292750044933989
1001
DBPROPERTIES
1002
{
1000
PbHidd
1002
}
  0
LINE
  5
226
330
1F
100
AcDbEntity
  8
HIDDEN
100
AcDbLine
 10
-164.2724919772495
 20
19.19876933733458
 30
0.0
 11
-165.8741396560812
 21
42.2102206501718
 31
0.0
1001
DBPROPERTIES
1002
{
1000
PbHidd
1002
}
  0
LINE
  5
227
330
1F
100
AcDbEntity
  8
HIDDEN
100
AcDbLine
 10
-136.8224058317465
 20
9.820167470532912
 30
0.0
 11
-149.7586354710781
 21
7.703919240338813
 31
0.0
1001
DBPROPERTIES
1002
{
1000
PbHidd
1002
}
  0
ELLIPSE
  5
228
330
1F
100
AcDbEntity
  8
HIDDEN
100
AcDbEllipse
 10
-163.3180339887499
 20
5.485726311212511
 30
0.0
 11
10.50834727213218
 21
-46.80486660175705
 31
0.0
210
0.0
220
0.0
230
1.0
 40
0.5590169943749476
 41
1.537957590519885
 42
2.759688066915917
1001
DBPROPERTIES
1002
{
1000
PbHidd
1002
}
  0
ELLIPSE
  5
229
330
1F
100
AcDbEntity
  8
HIDDEN
100
AcDbEllipse
 10
-163.3180339887499
 20
45.25890982267583
 30
0.0
 11
1.347224009247716
 21
-6.000623923302187
 31
0.0
210
0.0
220
0.0
230
1.0
 40
0.5590169943749477
 41
3.141592194002668
 42
5.115882557108262
1001
DBPROPERTIES
1002
{
1000
PbHidd
1002
}
  0
ELLIPSE
  5
22A
330
1F
100
AcDbEntity
  8
HIDDEN
100
AcDbEllipse
 10
-163.3180339887499
 20
45.25890982267583
 30
0.0
 11
1.347224009247716
 21
-6.000623923302187
 31
0.0
210
0.0
220
0.0
230
1.0
 40
0.5590169943749477
 41
2.759688066915917
 42
3.141592194002668
1001
DBPROPERTIES
1002
{
1000
PbHidd
1002
}
  0
LINE
  5
22B
330
1F
100
AcDbEntity
  8
HIDDEN
100
AcDbLine
 10
-147.5017234541458
 20
8.17170507575419
 30
0.0
 11
-135.2043718429966
 21
10.18343873453559
 31
0.0
1001
DBPROPERTIES
1002
{
1000
PbHidd
1002
}
  0
LINE
  5
22C
330
1F
100
AcDbEntity
  8
HIDDEN
100
AcDbLine
 10
-135.2043718429966
 20
10.1834387345356
 30
0.0
 11
-136.8224058317465
 21
9.820167470532915
 31
0.0
1001
DBPROPERTIES
1002
{
1000
PbHidd
1002
}
  0
LINE
  5
22D
330
1F
100
AcDbEntity
  8
HIDDEN
100
AcDbLine
 10
-164.2561056673313
 20
42.57349191417448
 30
0.0
 11
-162.7197831670726
 21
20.50059106165442
 31
0.0
1001
DBPROPERTIES
1002
{
1000
PbHidd
1002
}
  0
LINE
  5
22E
330
1F
100
AcDbEntity
  8
HIDDEN
100
AcDbLine
 10
-164.2561056673313
 20
42.57349191417448
 30
0.0
 11
-165.8741396560812
 21
42.21022065017181
 31
0.0
1001
DBPROPERTIES
1002
{
1000
PbHidd
1002
}
  0
LINE
  5
22F
330
1F
100
AcDbEntity
  8
HIDDEN
100
AcDbLine
 10
-161.7
 20
51.4711786618937
 30
0.0
 11
-163.3180339887499
 21
51.10790739789103
 31
0.0
1001
DBPROPERTIES
1002
{
1000
PbHidd
1002
}
  0
ELLIPSE
  5
230
330
1F
100
AcDbEntity
  8
HIDDEN
100
AcDbEllipse
 10
-161.7
 20
45.62218108667851
 30
0.0
 11
-1.347224009247716
 21
6.000623923302187
 31
0.0
210
0.0
220
0.0
230
1.0
 40
0.5590169943749477
 41
-0.3819045866738767
 42
-0.0000004595871248
1001
DBPROPERTIES
1002
{
1000
PbHidd
1002
}
  0
ELLIPSE
  5
231
330
1F
100
AcDbEntity
  8
HIDDEN
100
AcDbEllipse
 10
-161.7
 20
45.62218108667851
 30
0.0
 11
-1.347224009247716
 21
6.000623923302187
 31
0.0
210
0.0
220
0.0
230
1.0
 40
0.5590169943749477
 41
-0.0000004595871248
 42
1.974289903518469
1001
DBPROPERTIES
1002
{
1000
PbHidd
1002
}
  0
ELLIPSE
  5
232
330
1F
100
AcDbEntity
  8
HIDDEN
100
AcDbEllipse
 10
-161.7
 20
5.848997575215191
 30
0.0
 11
-10.50834727213218
 21
46.80486660175705
 31
0.0
210
0.0
220
0.0
230
1.0
 40
0.5590169943749476
 41
-1.603635063069908
 42
-0.3819045866738766
1001
DBPROPERTIES
1002
{
1000
PbHidd
1002
}
  0
LINE
  5
233
330
1F
100
AcDbEntity
  8
HIDDEN
100
AcDbLine
 10
-164.2724919772495
 20
19.11340140588473
 30
0.0
 11
-165.8741396560812
 21
40.76240982602853
 31
0.0
1001
DBPROPERTIES
1002
{
1000
PbHidd
1002
}
  0
LINE
  5
234
330
1F
100
AcDbEntity
  8
HIDDEN
100
AcDbLine
 10
-136.8224058317465
 20
33.08523750808826
 30
0.0
 11
-149.7586354710781
 21
19.96477507816914
 31
0.0
1001
DBPROPERTIES
1002
{
1000
PbHidd
1002
}
  0
ELLIPSE
  5
235
330
1F
100
AcDbEntity
  8
HIDDEN
100
AcDbEllipse
 10
-163.3180339887499
 20
6.212268839217873
 30
0.0
 11
-10.5083472721322
 21
-46.80486660175703
 31
0.0
210
0.0
220
0.0
230
1.0
 40
0.5590169943749475
 41
-3.141592432306505
 42
-2.759688066915917
1001
DBPROPERTIES
1002
{
1000
PbHidd
1002
}
  0
ELLIPSE
  5
236
330
1F
100
AcDbEntity
  8
HIDDEN
100
AcDbEllipse
 10
-163.3180339887499
 20
6.212268839217873
 30
0.0
 11
-10.5083472721322
 21
-46.80486660175703
 31
0.0
210
0.0
220
0.0
230
1.0
 40
0.5590169943749475
 41
2.30176676386764
 42
3.141592874873081
1001
DBPROPERTIES
1002
{
1000
PbHidd
1002
}
  0
ELLIPSE
  5
237
330
1F
100
AcDbEntity
  8
HIDDEN
100
AcDbEllipse
 10
-163.3180339887499
 20
45.98545235068119
 30
0.0
 11
-1.347224009247718
 21
-6.000623923302184
 31
0.0
210
0.0
220
0.0
230
1.0
 40
0.5590169943749475
 41
-2.759688066915917
 42
-0.4034935767235708
1001
DBPROPERTIES
1002
{
1000
PbHidd
1002
}
  0
LINE
  5
238
330
1F
100
AcDbEntity
  8
HIDDEN
100
AcDbLine
 10
-147.5017234541458
 20
20.24948049669089
 30
0.0
 11
-135.2043718429966
 21
32.72196624408558
 31
0.0
1001
DBPROPERTIES
1002
{
1000
PbHidd
1002
}
  0
LINE
  5
239
330
1F
100
AcDbEntity
  8
HIDDEN
100
AcDbLine
 10
-135.2043718429966
 20
32.7219662440856
 30
0.0
 11
-136.8224058317465
 21
33.08523750808828
 31
0.0
1001
DBPROPERTIES
1002
{
1000
PbHidd
1002
}
  0
LINE
  5
23A
330
1F
100
AcDbEntity
  8
HIDDEN
100
AcDbLine
 10
-164.2561056673313
 20
40.39913856202585
 30
0.0
 11
-162.7197831670726
 21
19.63311168624038
 31
0.0
1001
DBPROPERTIES
1002
{
1000
PbHidd
1002
}
  0
LINE
  5
23B
330
1F
100
AcDbEntity
  8
HIDDEN
100
AcDbLine
 10
-164.2561056673313
 20
40.39913856202585
 30
0.0
 11
-165.8741396560812
 21
40.76240982602853
 31
0.0
1001
DBPROPERTIES
1002
{
1000
PbHidd
1002
}
  0
LINE
  5
23C
330
1F
100
AcDbEntity
  8
HIDDEN
100
AcDbLine
 10
-161.7
 20
51.4711786618937
 30
0.0
 11
-163.3180339887499
 21
51.83444992589638
 31
0.0
1001
DBPROPERTIES
1002
{
1000
PbHidd
1002
}
  0
ELLIPSE
  5
23D
330
1F
100
AcDbEntity
  8
HIDDEN
100
AcDbEllipse
 10
-161.7
 20
45.6221810866785
 30
0.0
 11
1.347224009247718
 21
6.000623923302184
 31
0.0
210
0.0
220
0.0
230
1.0
 40
0.5590169943749475
 41
0.3819045866738773
 42
2.738099076866223
1001
DBPROPERTIES
1002
{
1000
PbHidd
1002
}
  0
ELLIPSE
  5
23E
330
1F
100
AcDbEntity
  8
HIDDEN
100
AcDbEllipse
 10
-161.7
 20
5.848997575215193
 30
0.0
 11
10.5083472721322
 21
46.80486660175703
 31
0.0
210
0.0
220
0.0
230
1.0
 40
0.5590169943749475
 41
-0.8398258897221536
 42
0.0000002212832885
1001
DBPROPERTIES
1002
{
1000
PbHidd
1002
}
  0
ELLIPSE
  5
23F
330
1F
100
AcDbEntity
  8
HIDDEN
100
AcDbEllipse
 10
-161.7
 20
5.848997575215193
 30
0.0
 11
10.5083472721322
 21
46.80486660175703
 31
0.0
210
0.0
220
0.0
230
1.0
 40
0.5590169943749475
 41
0.0000002212832884
 42
0.3819045866738773
1001
DBPROPERTIES
1002
{
1000
PbHidd
1002
}
  0
LINE
  5
240
330
1F
100
AcDbEntity
  8
HIDDEN
100
AcDbLine
 10
-164.2724919772495
 20
11.72736377800687
 30
0.0
 11
-165.8741396560812
 21
23.74474391169506
 31
0.0
1001
DBPROPERTIES
1002
{
1000
PbHidd
1002
}
  0
LINE
  5
241
330
1F
100
AcDbEntity
  8
HIDDEN
100
AcDbLine
 10
-136.8224058317465
 20
43.71287134341679
 30
0.0
 11
-149.7586354710781
 21
24.5997654138857
 31
0.0
1001
DBPROPERTIES
1002
{
1000
PbHidd
1002
}
  0
ELLIPSE
  5
242
330
1F
100
AcDbEntity
  8
HIDDEN
100
AcDbEllipse
 10
-163.3180339887499
 20
4.565935817893866
 30
0.0
 11
-24.30792703500743
 21
-41.35511556338292
 31
0.0
210
0.0
220
0.0
230
1.0
 40
0.3454915028125264
 41
-3.141588698245638
 42
-2.10218597845525
1001
DBPROPERTIES
1002
{
1000
PbHidd
1002
}
  0
ELLIPSE
  5
243
330
1F
100
AcDbEntity
  8
HIDDEN
100
AcDbEllipse
 10
-163.3180339887499
 20
4.565935817893866
 30
0.0
 11
-24.30792703500743
 21
-41.35511556338292
 31
0.0
210
0.0
220
0.0
230
1.0
 40
0.3454915028125264
 41
2.959268852328305
 42
3.141596608933948
1001
DBPROPERTIES
1002
{
1000
PbHidd
1002
}
  0
ELLIPSE
  5
244
330
1F
100
AcDbEntity
  8
HIDDEN
100
AcDbEllipse
 10
-163.3180339887499
 20
29.14711506876509
 30
0.0
 11
-3.116400901924029
 21
-5.301937892741399
 31
0.0
210
0.0
220
0.0
230
1.0
 40
0.3454915028125264
 41
-0.0000000998918903
 42
0.2540085117370957
1001
DBPROPERTIES
1002
{
1000
PbHidd
1002
}
  0
ELLIPSE
  5
245
330
1F
100
AcDbEntity
  8
HIDDEN
100
AcDbEllipse
 10
-163.3180339887499
 20
29.14711506876509
 30
0.0
 11
-3.116400901924029
 21
-5.301937892741399
 31
0.0
210
0.0
220
0.0
230
1.0
 40
0.3454915028125264
 41
-2.10218597845525
 42
-0.0000000998918903
1001
DBPROPERTIES
1002
{
1000
PbHidd
1002
}
  0
LINE
  5
246
330
1F
100
AcDbEntity
  8
HIDDEN
100
AcDbLine
 10
-147.5017234541458
 20
24.59264262241978
 30
0.0
 11
-135.2043718429966
 21
42.76181482712162
 31
0.0
1001
DBPROPERTIES
1002
{
1000
PbHidd
1002
}
  0
LINE
  5
247
330
1F
100
AcDbEntity
  8
HIDDEN
100
AcDbLine
 10
-135.2043718429966
 20
42.76181482712165
 30
0.0
 11
-136.8224058317465
 21
43.7128713434168
 31
0.0
1001
DBPROPERTIES
1002
{
1000
PbHidd
1002
}
  0
LINE
  5
248
330
1F
100
AcDbEntity
  8
HIDDEN
100
AcDbLine
 10
-164.2561056673313
 20
22.79368739539991
 30
0.0
 11
-162.7197831670726
 21
11.26645095160524
 31
0.0
1001
DBPROPERTIES
1002
{
1000
PbHidd
1002
}
  0
LINE
  5
249
330
1F
100
AcDbEntity
  8
HIDDEN
100
AcDbLine
 10
-164.2561056673313
 20
22.79368739539991
 30
0.0
 11
-165.8741396560812
 21
23.74474391169506
 31
0.0
1001
DBPROPERTIES
1002
{
1000
PbHidd
1002
}
  0
LINE
  5
24A
330
1F
100
AcDbEntity
  8
HIDDEN
100
AcDbLine
 10
-161.7
 20
31.81093785406865
 30
0.0
 11
-163.3180339887499
 21
32.7619943703638
 31
0.0
1001
DBPROPERTIES
1002
{
1000
PbHidd
1002
}
  0
ELLIPSE
  5
24B
330
1F
100
AcDbEntity
  8
HIDDEN
100
AcDbEllipse
 10
-161.7
 20
28.19605855246994
 30
0.0
 11
3.116400901924029
 21
5.301937892741399
 31
0.0
210
0.0
220
0.0
230
1.0
 40
0.3454915028125264
 41
1.039406675134543
 42
3.141592553697903
1001
DBPROPERTIES
1002
{
1000
PbHidd
1002
}
  0
ELLIPSE
  5
24C
330
1F
100
AcDbEntity
  8
HIDDEN
100
AcDbEllipse
 10
-161.7
 20
28.19605855246994
 30
0.0
 11
3.116400901924029
 21
5.301937892741399
 31
0.0
210
0.0
220
0.0
230
1.0
 40
0.3454915028125264
 41
3.141592553697903
 42
3.395601165326889
1001
DBPROPERTIES
1002
{
1000
PbHidd
1002
}
  0
ELLIPSE
  5
24D
330
1F
100
AcDbEntity
  8
HIDDEN
100
AcDbEllipse
 10
-161.7
 20
3.614879301598712
 30
0.0
 11
24.30792703500743
 21
41.35511556338292
 31
0.0
210
0.0
220
0.0
230
1.0
 40
0.3454915028125264
 41
-0.1823238012614875
 42
0.0000039553441537
1001
DBPROPERTIES
1002
{
1000
PbHidd
1002
}
  0
ELLIPSE
  5
24E
330
1F
100
AcDbEntity
  8
HIDDEN
100
AcDbEllipse
 10
-161.7
 20
3.614879301598712
 30
0.0
 11
24.30792703500743
 21
41.35511556338292
 31
0.0
210
0.0
220
0.0
230
1.0
 40
0.3454915028125264
 41
0.0000039553441537
 42
1.039406675134543
1001
DBPROPERTIES
1002
{
1000
PbHidd
1002
}
  0
LINE
  5
24F
330
1F
100
AcDbEntity
  8
HIDDEN
100
AcDbLine
 10
-164.2724919772495
 20
-0.138128214635223
 30
0.0
 11
-165.8741396560812
 21
-2.342607122743801
 31
0.0
1001
DBPROPERTIES
1002
{
1000
PbHidd
1002
}
  0
LINE
  5
250
330
1F
100
AcDbEntity
  8
HIDDEN
100
AcDbLine
 10
-136.8224058317465
 20
37.64367407141136
 30
0.0
 11
-149.7586354710781
 21
19.83848147677204
 31
0.0
1001
DBPROPERTIES
1002
{
1000
PbHidd
1002
}
  0
LINE
  5
251
330
1F
100
AcDbEntity
  8
HIDDEN
100
AcDbLine
 10
-166.9329132903486
 20
-3.799884010820973
 30
0.0
 11
-165.8741396560812
 21
-2.342607122743799
 31
0.0
1001
DBPROPERTIES
1002
{
1000
PbHidd
1002
}
  0
LINE
  5
252
330
1F
100
AcDbEntity
  8
HIDDEN
100
AcDbLine
 10
-147.5017234541458
 20
19.54225113956365
 30
0.0
 11
-135.2043718429966
 21
36.4681035668264
 31
0.0
1001
DBPROPERTIES
1002
{
1000
PbHidd
1002
}
  0
LINE
  5
253
330
1F
100
AcDbEntity
  8
HIDDEN
100
AcDbLine
 10
-135.2043718429966
 20
36.46810356682643
 30
0.0
 11
-136.8224058317465
 21
37.64367407141138
 31
0.0
1001
DBPROPERTIES
1002
{
1000
PbHidd
1002
}
  0
LINE
  5
254
330
1F
100
AcDbEntity
  8
HIDDEN
100
AcDbLine
 10
-164.2561056673313
 20
-3.518177627328748
 30
0.0
 11
-162.7197831670726
 21
-1.403611113959501
 31
0.0
1001
DBPROPERTIES
1002
{
1000
PbHidd
1002
}
  0
LINE
  5
255
330
1F
100
AcDbEntity
  8
HIDDEN
100
AcDbLine
 10
-164.2561056673313
 20
-3.518177627328747
 30
0.0
 11
-165.8741396560812
 21
-2.342607122743801
 31
0.0
1001
DBPROPERTIES
1002
{
1000
PbHidd
1002
}
  0
LINE
  5
256
330
1F
100
AcDbEntity
  8
HIDDEN
100
AcDbLine
 10
-161.7
 20
0.0000000000000084
 30
0.0
 11
-163.3180339887499
 21
1.175570504584954
 31
0.0
1001
DBPROPERTIES
1002
{
1000
PbHidd
1002
}
  0
LINE
  5
257
330
1F
100
AcDbEntity
  8
HIDDEN
100
AcDbLine
 10
-164.2561056673313
 20
-3.518177627328746
 30
0.0
 11
-165.3148793015987
 21
-4.975454515405919
 31
0.0
1001
DBPROPERTIES
1002
{
1000
PbHidd
1002
}
  0
ARC
  5
258
330
1F
100
AcDbEntity
  8
THICK
100
AcDbCircle
 10
-165.56
 20
-60.0
 30
0.0
 40
10.0
100
AcDbArc
 50
188.6269483776625
 51
245.0000366574661
1001
DBPROPERTIES
1002
{
1000
PbThick
1002
}
  0
ARC
  5
259
330
1F
100
AcDbEntity
  8
THICK
100
AcDbCircle
 10
0.0
 20
352.0829366119319
 30
0.0
 40
454.0829366119319
100
AcDbArc
 50
248.0430155074059
 51
291.9569646447513
1001
DBPROPERTIES
1002
{
1000
PbThick
1002
}
  0
ARC
  5
25A
330
1F
100
AcDbEntity
  8
THICK
100
AcDbCircle
 10
165.56
 20
-60.00000000000002
 30
0.0
 40
10.0
100
AcDbArc
 50
295.0000007904706
 51
351.3730890702743
1001
DBPROPERTIES
1002
{
1000
PbThick
1002
}
  0
LINE
  5
25B
330
1F
100
AcDbEntity
  8
HIDDEN
100
AcDbLine
 10
127.7
 20
-121.0
 30
0.0
 11
127.7
 21
-111.0
 31
0.0
1001
DBPROPERTIES
1002
{
1000
PbHidd
1002
}
  0
LINE
  5
25C
330
1F
100
AcDbEntity
  8
HIDDEN
100
AcDbLine
 10
127.7
 20
-121.0
 30
0.0
 11
127.7
 21
-111.0
 31
0.0
1001
DBPROPERTIES
1002
{
1000
PbHidd
1002
}
  0
LINE
  5
25D
330
1F
100
AcDbEntity
  8
HIDDEN
100
AcDbLine
 10
-122.3
 20
-121.0
 30
0.0
 11
-122.3
 21
-111.0
 31
0.0
1001
DBPROPERTIES
1002
{
1000
PbHidd
1002
}
  0
LINE
  5
25E
330
1F
100
AcDbEntity
  8
HIDDEN
100
AcDbLine
 10
-122.3
 20
-121.0
 30
0.0
 11
-122.3
 21
-111.0
 31
0.0
1001
DBPROPERTIES
1002
{
1000
PbHidd
1002
}
  0
ARC
  5
25F
330
1F
100
AcDbEntity
  8
THICK
100
AcDbCircle
 10
226.38
 20
-61.5
 30
0.0
 40
2.0
100
AcDbArc
 50
180.0000198478428
 51
0.0
1001
DBPROPERTIES
1002
{
1000
PbThick
1002
}
  0
ARC
  5
260
330
1F
100
AcDbEntity
  8
THICK
100
AcDbCircle
 10
-226.38
 20
-61.5
 30
0.0
 40
2.0
100
AcDbArc
 50
180.0000198478428
 51
0.0
1001
DBPROPERTIES
1002
{
1000
PbThick
1002
}
  0
ARC
  5
261
330
1F
100
AcDbEntity
  8
HIDDEN
100
AcDbCircle
 10
0.0
 20
311.2548908713252
 30
0.0
 40
405.2548908713252
100
AcDbArc
 50
246.1870333216386
 51
293.8129468305186
1001
DBPROPERTIES
1002
{
1000
PbHidd
1002
}
  0
ARC
  5
262
330
1F
100
AcDbEntity
  8
HIDDEN
100
AcDbCircle
 10
0.0
 20
-311.2548908713252
 30
0.0
 40
405.2548908713252
100
AcDbArc
 50
66.18705316948146
 51
113.8129666783614
1001
DBPROPERTIES
1002
{
1000
PbHidd
1002
}
  0
ARC
  5
263
330
1F
100
AcDbEntity
  8
THICK
100
AcDbCircle
 10
-226.38
 20
61.5
 30
0.0
 40
2.0
100
AcDbArc
 50
0.0
 51
180.0000198478428
1001
DBPROPERTIES
1002
{
1000
PbThick
1002
}
  0
ARC
  5
264
330
1F
100
AcDbEntity
  8
THICK
100
AcDbCircle
 10
226.38
 20
61.5
 30
0.0
 40
2.0
100
AcDbArc
 50
0.0
 51
180.0000198478428
1001
DBPROPERTIES
1002
{
1000
PbThick
1002
}
  0
LINE
  5
265
330
1F
100
AcDbEntity
  8
HIDDEN
100
AcDbLine
 10
-127.6999969482422
 20
-121.0
 30
0.0
 11
-127.6999969482422
 21
-111.0
 31
0.0
1001
DBPROPERTIES
1002
{
1000
PbHidd
1002
}
  0
LINE
  5
266
330
1F
100
AcDbEntity
  8
HIDDEN
100
AcDbLine
 10
-127.6999969482422
 20
-121.0
 30
0.0
 11
-127.6999969482422
 21
-111.0
 31
0.0
1001
DBPROPERTIES
1002
{
1000
PbHidd
1002
}
  0
LINE
  5
267
330
1F
100
AcDbEntity
  8
HIDDEN
100
AcDbLine
 10
122.3000030517578
 20
-121.0
 30
0.0
 11
122.3000030517578
 21
-111.0
 31
0.0
1001
DBPROPERTIES
1002
{
1000
PbHidd
1002
}
  0
LINE
  5
268
330
1F
100
AcDbEntity
  8
HIDDEN
100
AcDbLine
 10
122.3000030517578
 20
-121.0
 30
0.0
 11
122.3000030517578
 21
-111.0
 31
0.0
1001
DBPROPERTIES
1002
{
1000
PbHidd
1002
}
  0
ARC
  5
269
330
1F
100
AcDbEntity
  8
THICK
100
AcDbCircle
 10
165.56
 20
60.00000000000002
 30
0.0
 40
10.0
100
AcDbArc
 50
8.626910929725778
 51
64.99999920952942
1001
DBPROPERTIES
1002
{
1000
PbThick
1002
}
  0
ARC
  5
26A
330
1F
100
AcDbEntity
  8
THICK
100
AcDbCircle
 10
0.0
 20
-352.0829366119319
 30
0.0
 40
454.0829366119319
100
AcDbArc
 50
68.04303535524873
 51
111.9569844925941
1001
DBPROPERTIES
1002
{
1000
PbThick
1002
}
  0
ARC
  5
26B
330
1F
100
AcDbEntity
  8
THICK
100
AcDbCircle
 10
-165.56
 20
60.0
 30
0.0
 40
10.0
100
AcDbArc
 50
114.9999633425339
 51
171.3730516223376
1001
DBPROPERTIES
1002
{
1000
PbThick
1002
}
  0
LINE
  5
26C
330
1F
100
AcDbEntity
  8
HIDDEN
100
AcDbLine
 10
-92.4000015258789
 20
24.59999999999999
 30
0.0
 11
-150.1499938964844
 21
24.6
 31
0.0
1001
DBPROPERTIES
1002
{
1000
PbHidd
1002
}
  0
ARC
  5
26D
330
1F
100
AcDbEntity
  8
HIDDEN
100
AcDbCircle
 10
-150.15
 20
-0.0000000000000042
 30
0.0
 40
24.6
100
AcDbArc
 50
255.3896522439119
 51
270.0000187239684
1001
DBPROPERTIES
1002
{
1000
PbHidd
1002
}
  0
LINE
  5
26E
330
1F
100
AcDbEntity
  8
HIDDEN
100
AcDbLine
 10
-166.4344386929877
 20
-32.5469376939722
 30
0.0
 11
-164.8163991651118
 21
-33.49799746608394
 31
0.0
1001
DBPROPERTIES
1002
{
1000
PbHidd
1002
}
  0
LINE
  5
26F
330
1F
100
AcDbEntity
  8
HIDDEN
100
AcDbLine
 10
-164.6652557794792
 20
-51.25953424406645
 30
0.0
 11
-163.0472260239618
 21
-51.62280455764922
 31
0.0
1001
DBPROPERTIES
1002
{
1000
PbHidd
1002
}
  0
LINE
  5
270
330
1F
100
AcDbEntity
  8
HIDDEN
100
AcDbLine
 10
-152.8096864667723
 20
-53.01713538488112
 30
0.0
 11
-151.1916574335494
 21
-52.65386523346356
 31
0.0
1001
DBPROPERTIES
1002
{
1000
PbHidd
1002
}
  0
LINE
  5
271
330
1F
100
AcDbEntity
  8
HIDDEN
100
AcDbLine
 10
-166.4344329833984
 20
-23.84517669677734
 30
0.0
 11
-164.81640625
 21
-22.89412117004395
 31
0.0
1001
DBPROPERTIES
1002
{
1000
PbHidd
1002
}
  0
LINE
  5
272
330
1F
100
AcDbEntity
  8
HIDDEN
100
AcDbLine
 10
-139.0101065704067
 20
-45.92105115595767
 30
0.0
 11
-137.3920768962579
 21
-44.96999717572139
 31
0.0
1001
DBPROPERTIES
1002
{
1000
PbHidd
1002
}
  0
LINE
  5
273
330
1F
100
AcDbEntity
  8
HIDDEN
100
AcDbLine
 10
-166.9329071044922
 20
3.799884080886841
 30
0.0
 11
-165.3148803710938
 21
4.975454330444336
 31
0.0
1001
DBPROPERTIES
1002
{
1000
PbHidd
1002
}
  0
LINE
  5
274
330
1F
100
AcDbEntity
  8
HIDDEN
100
AcDbLine
 10
-166.434326171875
 20
32.54700469970703
 30
0.0
 11
-164.8162841796875
 21
33.49806213378906
 31
0.0
1001
DBPROPERTIES
1002
{
1000
PbHidd
1002
}
  0
LINE
  5
275
330
1F
100
AcDbEntity
  8
HIDDEN
100
AcDbLine
 10
-164.6652526855469
 20
51.2595329284668
 30
0.0
 11
-163.0472259521484
 21
51.62280654907227
 31
0.0
1001
DBPROPERTIES
1002
{
1000
PbHidd
1002
}
  0
LINE
  5
276
330
1F
100
AcDbEntity
  8
HIDDEN
100
AcDbLine
 10
-152.8096923828125
 20
53.01713562011719
 30
0.0
 11
-151.1916656494141
 21
52.65386581420898
 31
0.0
1001
DBPROPERTIES
1002
{
1000
PbHidd
1002
}
  0
LINE
  5
277
330
1F
100
AcDbEntity
  8
HIDDEN
100
AcDbLine
 10
-166.4344337023237
 20
23.84517647752897
 30
0.0
 11
-164.8164048952318
 21
22.89412300693599
 31
0.0
1001
DBPROPERTIES
1002
{
1000
PbHidd
1002
}
  0
LINE
  5
278
330
1F
100
AcDbEntity
  8
HIDDEN
100
AcDbLine
 10
-139.0101623535156
 20
45.92108535766602
 30
0.0
 11
-137.3921356201172
 21
44.97002792358398
 31
0.0
1001
DBPROPERTIES
1002
{
1000
PbHidd
1002
}
  0
LINE
  5
279
330
1F
100
AcDbEntity
  8
HIDDEN
100
AcDbLine
 10
-166.9329092083347
 20
-3.799886976577653
 30
0.0
 11
-165.3148800895468
 21
-4.975453942928142
 31
0.0
1001
DBPROPERTIES
1002
{
1000
PbHidd
1002
}
  0
LINE
  5
27A
330
1F
100
AcDbEntity
  8
HIDDEN
100
AcDbLine
 10
-92.4000015258789
 20
-24.60000038146973
 30
0.0
 11
-150.1499938964844
 21
-24.60000038146973
 31
0.0
1001
DBPROPERTIES
1002
{
1000
PbHidd
1002
}
  0
ENDSEC
  0
SECTION
  2
OBJECTS
  0
DICTIONARY
  5
C
330
0
100
AcDbDictionary
  3
ACAD_GROUP
350
D
  3
ACAD_LAYOUT
350
1A
  3
ACAD_MATERIAL
350
43
  3
ACAD_MLEADERSTYLE
350
6B
  3
ACAD_MLINESTYLE
350
17
  3
ACAD_PLOTSETTINGS
350
19
  3
ACAD_SCALELIST
350
47
  3
ACAD_VISUALSTYLE
350
2A
  3
ACDBVARIABLEDICTIONARY
350
27B
1001
ACAD
1000
TREAT_AS_HARD
1070
     0
  0
DICTIONARY
  5
D
102
{ACAD_REACTORS
330
C
102
}
330
C
100
AcDbDictionary
1001
ACAD
1000
TREAT_AS_HARD
1070
     0
  0
DICTIONARY
  5
1A
102
{ACAD_REACTORS
330
C
102
}
330
C
100
AcDbDictionary
1001
ACAD
1000
TREAT_AS_HARD
1070
     0
  0
DICTIONARY
  5
43
102
{ACAD_REACTORS
330
C
102
}
330
C
100
AcDbDictionary
  3
BYBLOCK
350
45
  3
BYLAYER
350
44
  3
GLOBAL
350
46
1001
ACAD
1000
TREAT_AS_HARD
1070
     0
  0
DICTIONARY
  5
6B
102
{ACAD_REACTORS
330
C
102
}
330
C
100
AcDbDictionary
  3
STANDARD
350
6C
1001
ACAD
1000
TREAT_AS_HARD
1070
     0
  0
DICTIONARY
  5
17
102
{ACAD_REACTORS
330
C
102
}
330
C
100
AcDbDictionary
  3
STANDARD
350
18
1001
ACAD
1000
TREAT_AS_HARD
1070
     0
  0
DICTIONARY
  5
19
102
{ACAD_REACTORS
330
C
102
}
330
C
100
AcDbDictionary
1001
ACAD
1000
TREAT_AS_HARD
1070
     0
  0
DICTIONARY
  5
47
102
{ACAD_REACTORS
330
C
102
}
330
C
100
AcDbDictionary
  3
A0
350
48
  3
A1
350
49
  3
A2
350
4A
  3
A3
350
4B
  3
A4
350
4C
  3
A5
350
4D
  3
A6
350
4E
  3
A7
350
4F
  3
A8
350
50
  3
A9
350
51
  3
B0
350
52
  3
B1
350
53
  3
B2
350
54
  3
B3
350
55
  3
B4
350
56
  3
B5
350
57
  3
B6
350
58
  3
B7
350
59
  3
B8
350
5A
  3
B9
350
5B
  3
C0
350
5C
  3
C1
350
5D
  3
C2
350
5E
  3
C3
350
5F
  3
C4
350
60
  3
C5
350
61
  3
C6
350
62
  3
C7
350
63
  3
C8
350
64
  3
C9
350
65
  3
D0
350
66
  3
D1
350
67
  3
D2
350
68
1001
ACAD
1000
TREAT_AS_HARD
1070
     0
  0
DICTIONARY
  5
2A
102
{ACAD_REACTORS
330
C
102
}
330
C
100
AcDbDictionary
  3
2DWIREFRAME
350
2F
  3
BASIC
350
32
  3
BRIGHTEN
350
36
  3
COLORCHANGE
350
3A
  3
CONCEPTUAL
350
34
  3
DIM
350
35
  3
EDGECOLOROFF
350
3D
  3
FACEPATTERN
350
39
  3
FLAT
350
2B
  3
FLATWITHEDGES
350
2C
  3
GOURAUD
350
2D
  3
GOURAUDWITHEDGES
350
2E
  3
HIDDEN
350
31
  3
JITTEROFF
350
3B
  3
LINEPATTERN
350
38
  3
OVERHANGOFF
350
3C
  3
REALISTIC
350
33
  3
SHADED
350
42
  3
SHADED_WITH_EDGES
350
41
  3
SHADES_OF_GRAY
350
3E
  3
SKETCHY
350
3F
  3
THICKEN
350
37
  3
WIREFRAME
350
30
  3
X-RAY
350
40
1001
ACAD
1000
TREAT_AS_HARD
1070
     0
  0
DICTIONARY
  5
27B
102
{ACAD_REACTORS
330
C
102
}
330
C
100
AcDbDictionary
  3
CANNOSCALE
350
286
  3
CENTEREXE
350
282
  3
CENTERLTYPEFILE
350
283
  3
CMLEADERSTYLE
350
27D
  3
CTABLESTYLE
350
27C
  3
DIMASSOC
350
284
  3
HIDETEXT
350
285
  3
MSLTSCALE
350
287
  3
PSOLHEIGHT
350
27F
  3
PSOLWIDTH
350
27E
1001
ACAD
1000
TREAT_AS_HARD
1070
     0
  0
MATERIAL
  5
45
102
{ACAD_REACTORS
330
43
102
}
102
{ACAD_XDICTIONARY
360
28A
102
}
330
43
100
AcDbMaterial
  1
BYBLOCK
  0
MATERIAL
  5
44
102
{ACAD_REACTORS
330
43
102
}
102
{ACAD_XDICTIONARY
360
288
102
}
330
43
100
AcDbMaterial
  1
BYLAYER
  0
MATERIAL
  5
46
102
{ACAD_REACTORS
330
43
102
}
102
{ACAD_XDICTIONARY
360
28C
102
}
330
43
100
AcDbMaterial
  1
GLOBAL
  0
ACAD_PROXY_OBJECT
  5
6C
102
{ACAD_REACTORS
330
6B
102
}
330
6B
100
AcDbZombieObject
 90
      499
 91
      505
 93
      610
310
40901902A4063FBFFFFFE0000000000000020400000000000020404214DD185B99185C990000000000000104090141901A00000000000004100000000000000041025764000000000000039000
340
14
340
0
340
11
340
0
 94
        0
1001
ACAD_MLEADERVER
1070
     2
  0
MLINESTYLE
  5
18
102
{ACAD_REACTORS
330
17
102
}
330
17
100
AcDbMlineStyle
  2
Standard
 70
     0
  3

 62
   256
 51
90.0
 52
90.0
 71
     2
 49
0.5
 62
   256
  6
BYLAYER
 49
-0.5
 62
   256
  6
BYLAYER
  0
ACAD_PROXY_OBJECT
  5
48
102
{ACAD_REACTORS
330
47
102
}
330
47
100
AcDbZombieObject
 90
      499
 91
      503
 93
       41
310
903313A31580
  0
ACAD_PROXY_OBJECT
  5
49
102
{ACAD_REACTORS
330
47
102
}
330
47
100
AcDbZombieObject
 90
      499
 91
      503
 93
      105
310
903313A324000000000000004000
  0
ACAD_PROXY_OBJECT
  5
4A
102
{ACAD_REACTORS
330
47
102
}
330
47
100
AcDbZombieObject
 90
      499
 91
      503
 93
      105
310
903313A344000000000000104000
  0
ACAD_PROXY_OBJECT
  5
4B
102
{ACAD_REACTORS
330
47
102
}
330
47
100
AcDbZombieObject
 90
      499
 91
      503
 93
      105
310
903313A354000000000000144000
  0
ACAD_PROXY_OBJECT
  5
4C
102
{ACAD_REACTORS
330
47
102
}
330
47
100
AcDbZombieObject
 90
      499
 91
      503
 93
      105
310
903313A384000000000000204000
  0
ACAD_PROXY_OBJECT
  5
4D
102
{ACAD_REACTORS
330
47
102
}
330
47
100
AcDbZombieObject
 90
      499
 91
      503
 93
      113
310
904313A31304000000000000244000
  0
ACAD_PROXY_OBJECT
  5
4E
102
{ACAD_REACTORS
330
47
102
}
330
47
100
AcDbZombieObject
 90
      499
 91
      503
 93
      113
310
904313A31364000000000000304000
  0
ACAD_PROXY_OBJECT
  5
4F
102
{ACAD_REACTORS
330
47
102
}
330
47
100
AcDbZombieObject
 90
      499
 91
      503
 93
      113
310
904313A32304000000000000344000
  0
ACAD_PROXY_OBJECT
  5
50
102
{ACAD_REACTORS
330
47
102
}
330
47
100
AcDbZombieObject
 90
      499
 91
      503
 93
      113
310
904313A333040000000000003E4000
  0
ACAD_PROXY_OBJECT
  5
51
102
{ACAD_REACTORS
330
47
102
}
330
47
100
AcDbZombieObject
 90
      499
 91
      503
 93
      113
310
904313A34304000000000000444000
  0
ACAD_PROXY_OBJECT
  5
52
102
{ACAD_REACTORS
330
47
102
}
330
47
100
AcDbZombieObject
 90
      499
 91
      503
 93
      113
310
904313A35304000000000000494000
  0
ACAD_PROXY_OBJECT
  5
53
102
{ACAD_REACTORS
330
47
102
}
330
47
100
AcDbZombieObject
 90
      499
 91
      503
 93
      121
310
905313A3130304000000000000594000
  0
ACAD_PROXY_OBJECT
  5
54
102
{ACAD_REACTORS
330
47
102
}
330
47
100
AcDbZombieObject
 90
      499
 91
      503
 93
      105
310
903323A310000000000000010100
  0
ACAD_PROXY_OBJECT
  5
55
102
{ACAD_REACTORS
330
47
102
}
330
47
100
AcDbZombieObject
 90
      499
 91
      503
 93
      105
310
903343A310000000000000410100
  0
ACAD_PROXY_OBJECT
  5
56
102
{ACAD_REACTORS
330
47
102
}
330
47
100
AcDbZombieObject
 90
      499
 91
      503
 93
      105
310
903383A310000000000000810100
  0
ACAD_PROXY_OBJECT
  5
57
102
{ACAD_REACTORS
330
47
102
}
330
47
100
AcDbZombieObject
 90
      499
 91
      503
 93
      113
310
90431303A310000000000000910100
  0
ACAD_PROXY_OBJECT
  5
58
102
{ACAD_REACTORS
330
47
102
}
330
47
100
AcDbZombieObject
 90
      499
 91
      503
 93
      121
310
9053130303A310000000000001650100
  0
ACAD_PROXY_OBJECT
  5
59
102
{ACAD_REACTORS
330
47
102
}
330
47
100
AcDbZombieObject
 90
      499
 91
      503
 93
      257
310
90E312F31323822203D2031272D3022000000000000200FC000000000000284000
  0
ACAD_PROXY_OBJECT
  5
5A
102
{ACAD_REACTORS
330
47
102
}
330
47
100
AcDbZombieObject
 90
      499
 91
      503
 93
      249
310
90D312F363422203D2031272D3022000000000000240FC000000000000284000
  0
ACAD_PROXY_OBJECT
  5
5B
102
{ACAD_REACTORS
330
47
102
}
330
47
100
AcDbZombieObject
 90
      499
 91
      503
 93
      249
310
90D312F333222203D2031272D3022000000000000280FC000000000000284000
  0
ACAD_PROXY_OBJECT
  5
5C
102
{ACAD_REACTORS
330
47
102
}
330
47
100
AcDbZombieObject
 90
      499
 91
      503
 93
      249
310
90D312F313622203D2031272D30220000000000002C0FC000000000000284000
  0
ACAD_PROXY_OBJECT
  5
5D
102
{ACAD_REACTORS
330
47
102
}
330
47
100
AcDbZombieObject
 90
      499
 91
      503
 93
      249
310
90D332F333222203D2031272D30220000000000002E0FC000000000000284000
  0
ACAD_PROXY_OBJECT
  5
5E
102
{ACAD_REACTORS
330
47
102
}
330
47
100
AcDbZombieObject
 90
      499
 91
      503
 93
      241
310
90C312F3822203D2031272D3022000000000000300FC000000000000284000
  0
ACAD_PROXY_OBJECT
  5
5F
102
{ACAD_REACTORS
330
47
102
}
330
47
100
AcDbZombieObject
 90
      499
 91
      503
 93
      249
310
90D332F313622203D2031272D3022000000000000320FC000000000000284000
  0
ACAD_PROXY_OBJECT
  5
60
102
{ACAD_REACTORS
330
47
102
}
330
47
100
AcDbZombieObject
 90
      499
 91
      503
 93
      241
310
90C312F3422203D2031272D3022000000000000340FC000000000000284000
  0
ACAD_PROXY_OBJECT
  5
61
102
{ACAD_REACTORS
330
47
102
}
330
47
100
AcDbZombieObject
 90
      499
 91
      503
 93
      241
310
90C332F3822203D2031272D3022000000000000360FC000000000000284000
  0
ACAD_PROXY_OBJECT
  5
62
102
{ACAD_REACTORS
330
47
102
}
330
47
100
AcDbZombieObject
 90
      499
 91
      503
 93
      241
310
90C312F3222203D2031272D3022000000000000380FC000000000000284000
  0
ACAD_PROXY_OBJECT
  5
63
102
{ACAD_REACTORS
330
47
102
}
330
47
100
AcDbZombieObject
 90
      499
 91
      503
 93
      241
310
90C332F3422203D2031272D30220000000000003A0FC000000000000284000
  0
ACAD_PROXY_OBJECT
  5
64
102
{ACAD_REACTORS
330
47
102
}
330
47
100
AcDbZombieObject
 90
      499
 91
      503
 93
      161
310
90A3122203D2031272D30224000000000000284000
  0
ACAD_PROXY_OBJECT
  5
65
102
{ACAD_REACTORS
330
47
102
}
330
47
100
AcDbZombieObject
 90
      499
 91
      503
 93
      257
310
90E312D312F3222203D2031272D30220000000000003E0FC000000000000284000
  0
ACAD_PROXY_OBJECT
  5
66
102
{ACAD_REACTORS
330
47
102
}
330
47
100
AcDbZombieObject
 90
      499
 91
      503
 93
      225
310
90A3322203D2031272D302200000000000002100000000000000284000
  0
ACAD_PROXY_OBJECT
  5
67
102
{ACAD_REACTORS
330
47
102
}
330
47
100
AcDbZombieObject
 90
      499
 91
      503
 93
      225
310
90A3622203D2031272D302200000000000006100000000000000284000
  0
ACAD_PROXY_OBJECT
  5
68
102
{ACAD_REACTORS
330
47
102
}
330
47
100
AcDbZombieObject
 90
      499
 91
      503
 93
      249
310
90D31272D3022203D2031272D30220000000000000A100000000000000284000
  0
ACAD_PROXY_OBJECT
  5
2F
102
{ACAD_REACTORS
330
2A
102
}
330
2A
100
AcDbZombieObject
 90
      499
 91
      501
 93
      436
310
42CC9915DA5C99599C985B595049028333333333333E33F0000000000000F90107901411070040501600405405064090741402480A0340
1001
ACAD
1000
AcDbSavedByObjectVersion
1070
     0
  0
ACAD_PROXY_OBJECT
  5
32
102
{ACAD_REACTORS
330
2A
102
}
330
2A
100
AcDbZombieObject
 90
      499
 91
      501
 93
      388
310
4150985CDA58D07406404333333333333E33F0000000000000F90107A41107004050150841D405064090741402480A0350
1001
ACAD
1000
AcDbSavedByObjectVersion
1070
     0
  0
ACAD_PROXY_OBJECT
  5
36
102
{ACAD_REACTORS
330
2A
102
}
330
2A
100
AcDbZombieObject
 90
      499
 91
      501
 93
      428
310
42109C9A59DA1D195B90C409028333333333333E33F0000000000000F9010790141107004050150841D405064090741402480A029950
1001
ACAD
1000
AcDbSavedByObjectVersion
1070
     0
  0
ACAD_PROXY_OBJECT
  5
3A
102
{ACAD_REACTORS
330
2A
102
}
330
2A
100
AcDbZombieObject
 90
      499
 91
      501
 93
      452
310
42D0DBDB1BDC90DA185B99D95104090240C333333333333E33F0000000000000F90108901411070040501508421405064090741402480A0350
1001
ACAD
1000
AcDbSavedByObjectVersion
1070
     0
  0
ACAD_PROXY_OBJECT
  5
34
102
{ACAD_REACTORS
330
2A
102
}
330
2A
100
AcDbZombieObject
 90
      499
 91
      501
 93
      500
310
4290DBDB98D95C1D1D585B10940D028333333333333E33F0000000000000F90107902409070040501000000000018199010841D405064090740C02480A0340
1001
ACAD
1000
AcDbSavedByObjectVersion
1070
     0
  0
ACAD_PROXY_OBJECT
  5
35
102
{ACAD_REACTORS
330
2A
102
}
330
2A
100
AcDbZombieObject
 90
      499
 91
      501
 93
      412
310
40D11A5B50B409028333333333333E33F0000000000000F9010790141107004050150841D405064090741402480A02677FFFFFD0
1001
ACAD
1000
AcDbSavedByObjectVersion
1070
     0
  0
ACAD_PROXY_OBJECT
  5
3D
102
{ACAD_REACTORS
330
2A
102
}
330
2A
100
AcDbZombieObject
 90
      499
 91
      501
 93
      452
310
43115919D950DBDB1BDC93D999916409028333333333333E33F0000000000000F9010790141107004050150841D405064090741402480A0350
1001
ACAD
1000
AcDbSavedByObjectVersion
1070
     0
  0
ACAD_PROXY_OBJECT
  5
39
102
{ACAD_REACTORS
330
2A
102
}
330
2A
100
AcDbZombieObject
 90
      499
 91
      501
 93
      444
310
42D19858D95C185D1D195C9B90F409028333333333333E33F0000000000000F9010790141107004050150841D405064090741402480A0350
1001
ACAD
1000
AcDbSavedByObjectVersion
1070
     0
  0
ACAD_PROXY_OBJECT
  5
2B
102
{ACAD_REACTORS
330
2A
102
}
330
2A
100
AcDbZombieObject
 90
      499
 91
      501
 93
      380
310
41119B185D240901404333333333333E33F0000000000000F9010740A907004050150841D405064090741402480A1B50
1001
ACAD
1000
AcDbSavedByObjectVersion
1070
     0
  0
ACAD_PROXY_OBJECT
  5
2C
102
{ACAD_REACTORS
330
2A
102
}
330
2A
100
AcDbZombieObject
 90
      499
 91
      501
 93
      468
310
43519B185D15DA5D1A115919D95CD0140901404333333333333E33F0000000000000F90107409019070040501600405405064090741402480A1B50
1001
ACAD
1000
AcDbSavedByObjectVersion
1070
     0
  0
ACAD_PROXY_OBJECT
  5
2D
102
{ACAD_REACTORS
330
2A
102
}
330
2A
100
AcDbZombieObject
 90
      499
 91
      501
 93
      404
310
41D1DBDD5C985D5910240902404333333333333E33F0000000000000F9010740A9070040501641D405064090741402480A1B50
1001
ACAD
1000
AcDbSavedByObjectVersion
1070
     0
  0
ACAD_PROXY_OBJECT
  5
2E
102
{ACAD_REACTORS
330
2A
102
}
330
2A
100
AcDbZombieObject
 90
      499
 91
      501
 93
      492
310
4411DBDD5C985D5915DA5D1A115919D95CD0340902404333333333333E33F0000000000000F90107409019070040501600405405064090741402480A1B50
1001
ACAD
1000
AcDbSavedByObjectVersion
1070
     0
  0
ACAD_PROXY_OBJECT
  5
31
102
{ACAD_REACTORS
330
2A
102
}
330
2A
100
AcDbZombieObject
 90
      499
 91
      501
 93
      476
310
41921A5919195B90640502408333333333333E33F0000000000000F901079024090700405020000000000001110200405405064090740C02480A0340
1001
ACAD
1000
AcDbSavedByObjectVersion
1070
     0
  0
ACAD_PROXY_OBJECT
  5
3B
102
{ACAD_REACTORS
330
2A
102
}
330
2A
100
AcDbZombieObject
 90
      499
 91
      501
 93
      428
310
42529A5D1D195C93D999914409028333333333333E33F0000000000000F9010790141107004050150A41D405064090741402480A0350
1001
ACAD
1000
AcDbSavedByObjectVersion
1070
     0
  0
ACAD_PROXY_OBJECT
  5
38
102
{ACAD_REACTORS
330
2A
102
}
330
2A
100
AcDbZombieObject
 90
      499
 91
      501
 93
      444
310
42D31A5B995C185D1D195C9B90E409028333333333333E33F0000000000000F9010790141107004050750841D405064090741402483A0350
1001
ACAD
1000
AcDbSavedByObjectVersion
1070
     0
  0
ACAD_PROXY_OBJECT
  5
3C
102
{ACAD_REACTORS
330
2A
102
}
330
2A
100
AcDbZombieObject
 90
      499
 91
      501
 93
      444
310
42D3DD995C9A185B99D3D999915409028333333333333E33F0000000000000F9010790141107004050150941D405064090741402480A0350
1001
ACAD
1000
AcDbSavedByObjectVersion
1070
     0
  0
ACAD_PROXY_OBJECT
  5
33
102
{ACAD_REACTORS
330
2A
102
}
330
2A
100
AcDbZombieObject
 90
      499
 91
      501
 93
      428
310
425499585B1A5CDD1A58D08409038333333333333E33F0000000000000F9010740A907004050150800405405064090740C02480A1B40
1001
ACAD
1000
AcDbSavedByObjectVersion
1070
     0
  0
ACAD_PROXY_OBJECT
  5
42
102
{ACAD_REACTORS
330
2A
102
}
330
2A
100
AcDbZombieObject
 90
      499
 91
      501
 93
      420
310
4194DA1859195911B40902404333333333333E33F0000000000000F9010740A41107004050150800405405064090840C02480A0B40
1001
ACAD
1000
AcDbSavedByObjectVersion
1070
     0
  0
ACAD_PROXY_OBJECT
  5
41
102
{ACAD_REACTORS
330
2A
102
}
330
2A
100
AcDbZombieObject
 90
      499
 91
      501
 93
      516
310
4454DA18591959081DDA5D1A08195919D95CD1A40902404333333333333E33F0000000000000F901074090142907004050250800405405064090740C02480A0B40
1001
ACAD
1000
AcDbSavedByObjectVersion
1070
     0
  0
ACAD_PROXY_OBJECT
  5
3E
102
{ACAD_REACTORS
330
2A
102
}
330
2A
100
AcDbZombieObject
 90
      499
 91
      501
 93
      532
310
4394DA1859195CC81BD98811DC985E5174090240C333333333333E33F0000000000000F901079024090741D01000000000000111010841D405064090740C02480A0340
1001
ACAD
1000
AcDbSavedByObjectVersion
1070
     0
  0
ACAD_PROXY_OBJECT
  5
3F
102
{ACAD_REACTORS
330
2A
102
}
330
2A
100
AcDbZombieObject
 90
      499
 91
      501
 93
      476
310
41D4DAD95D18DA1E51840502408333333333333E33F0000000000000F901079024090741D01000000000000111010B41D405064090741802480A0340
1001
ACAD
1000
AcDbSavedByObjectVersion
1070
     0
  0
ACAD_PROXY_OBJECT
  5
37
102
{ACAD_REACTORS
330
2A
102
}
330
2A
100
AcDbZombieObject
 90
      499
 91
      501
 93
      412
310
41D51A1A58DAD95B90D409028333333333333E33F0000000000000F9010790141107004050150C41D405064090741402480A0350
1001
ACAD
1000
AcDbSavedByObjectVersion
1070
     0
  0
ACAD_PROXY_OBJECT
  5
30
102
{ACAD_REACTORS
330
2A
102
}
330
2A
100
AcDbZombieObject
 90
      499
 91
      501
 93
      420
310
4255DA5C99599C985B595059028333333333333E33F0000000000000F90107901411070040501600405405064090740C02480A0340
1001
ACAD
1000
AcDbSavedByObjectVersion
1070
     0
  0
ACAD_PROXY_OBJECT
  5
40
102
{ACAD_REACTORS
330
2A
102
}
330
2A
100
AcDbZombieObject
 90
      499
 91
      501
 93
      404
310
41560B54985E51940902404000000000000E03F0000000000000F9010740501907004050150841D405064090740C02480A1B40
1001
ACAD
1000
AcDbSavedByObjectVersion
1070
     0
  0
DICTIONARYVAR
  5
286
102
{ACAD_REACTORS
330
27B
102
}
330
27B
100
DictionaryVariables
280
     0
  1
1:1
  0
DICTIONARYVAR
  5
282
102
{ACAD_REACTORS
330
27B
102
}
330
27B
100
DictionaryVariables
280
     0
  1
3.500000
  0
DICTIONARYVAR
  5
283
102
{ACAD_REACTORS
330
27B
102
}
330
27B
100
DictionaryVariables
280
     0
  1
acadiso.lin
  0
DICTIONARYVAR
  5
27D
102
{ACAD_REACTORS
330
27B
102
}
330
27B
100
DictionaryVariables
280
     0
  1
Standard
  0
DICTIONARYVAR
  5
27C
102
{ACAD_REACTORS
330
27B
102
}
330
27B
100
DictionaryVariables
280
     0
  1
Standard
  0
DICTIONARYVAR
  5
284
102
{ACAD_REACTORS
330
27B
102
}
330
27B
100
DictionaryVariables
280
     0
  1
2
  0
DICTIONARYVAR
  5
285
102
{ACAD_REACTORS
330
27B
102
}
330
27B
100
DictionaryVariables
280
     0
  1
1
  0
DICTIONARYVAR
  5
287
102
{ACAD_REACTORS
330
27B
102
}
330
27B
100
DictionaryVariables
280
     0
  1
1
  0
DICTIONARYVAR
  5
27F
102
{ACAD_REACTORS
330
27B
102
}
330
27B
100
DictionaryVariables
280
     0
  1
80.000000
  0
DICTIONARYVAR
  5
27E
102
{ACAD_REACTORS
330
27B
102
}
330
27B
100
DictionaryVariables
280
     0
  1
5.000000
  0
DICTIONARY
  5
28A
330
45
100
AcDbDictionary
  3
ACAD_XREC_ROUNDTRIP
360
28B
1001
ACAD
1000
TREAT_AS_HARD
1070
     1
  0
DICTIONARY
  5
288
330
44
100
AcDbDictionary
  3
ACAD_XREC_ROUNDTRIP
360
289
1001
ACAD
1000
TREAT_AS_HARD
1070
     1
  0
DICTIONARY
  5
28C
330
46
100
AcDbDictionary
  3
ACAD_XREC_ROUNDTRIP
360
28D
1001
ACAD
1000
TREAT_AS_HARD
1070
     1
  0
XRECORD
  5
28B
102
{ACAD_REACTORS
330
28A
102
}
330
28A
100
AcDbXrecord
102
MATERIAL
148
0.0
149
0.0
149
0.0
 93
        0
 94
      127
282
     0
 72
     1
 77
     1
171
     1
175
     1
179
     1
273
     0
  0
XRECORD
  5
289
102
{ACAD_REACTORS
330
288
102
}
330
288
100
AcDbXrecord
102
MATERIAL
148
0.0
149
0.0
149
0.0
 93
        0
 94
      127
282
     0
 72
     1
 77
     1
171
     1
175
     1
179
     1
273
     0
  0
XRECORD
  5
28D
102
{ACAD_REACTORS
330
28C
102
}
330
28C
100
AcDbXrecord
102
MATERIAL
148
0.0
149
0.0
149
0.0
 93
        0
 94
      127
282
     0
 72
     1
 77
     1
171
     1
175
     1
179
     1
273
     0
  0
ENDSEC
  0
EOF
