  0
SECTION
  2
HEADER
  9
$ACADVER
  1
AC1012
  9
$DWGCODEPAGE
  3
ansi_1252
  9
$INSBASE
 10
0.0
 20
0.0
 30
0.0
  9
$EXTMIN
 10
1.000000000000000E+20
 20
1.000000000000000E+20
 30
1.000000000000000E+20
  9
$EXTMAX
 10
-1.000000000000000E+20
 20
-1.000000000000000E+20
 30
-1.000000000000000E+20
  9
$LIMMIN
 10
0.0
 20
0.0
  9
$LIMMAX
 10
420.0
 20
297.0
  9
$ORTHOMODE
 70
     0
  9
$REGENMODE
 70
     1
  9
$FILLMODE
 70
     1
  9
$QTEXTMODE
 70
     0
  9
$MIRRTEXT
 70
     1
  9
$DRAGMODE
 70
     2
  9
$LTSCALE
 40
1.0
  9
$OSMODE
 70
    37
  9
$ATTMODE
 70
     1
  9
$TEXTSIZE
 40
2.5
  9
$TRACEWID
 40
1.0
  9
$TEXTSTYLE
  7
STANDARD
  9
$CLAYER
  8
0
  9
$CELTYPE
  6
BYLAYER
  9
$CECOLOR
 62
   256
  9
$CELTSCALE
 40
1.0
  9
$DELOBJ
 70
     1
  9
$DISPSILH
 70
     0
  9
$DIMSCALE
 40
1.0
  9
$DIMASZ
 40
2.5
  9
$DIMEXO
 40
0.625
  9
$DIMDLI
 40
3.75
  9
$DIMRND
 40
0.0
  9
$DIMDLE
 40
0.0
  9
$DIMEXE
 40
1.25
  9
$DIMTP
 40
0.0
  9
$DIMTM
 40
0.0
  9
$DIMTXT
 40
2.5
  9
$DIMCEN
 40
2.5
  9
$DIMTSZ
 40
0.0
  9
$DIMTOL
 70
     0
  9
$DIMLIM
 70
     0
  9
$DIMTIH
 70
     0
  9
$DIMTOH
 70
     0
  9
$DIMSE1
 70
     0
  9
$DIMSE2
 70
     0
  9
$DIMTAD
 70
     1
  9
$DIMZIN
 70
     8
  9
$DIMBLK
  1

  9
$DIMASO
 70
     1
  9
$DIMSHO
 70
     1
  9
$DIMPOST
  1

  9
$DIMAPOST
  1

  9
$DIMALT
 70
     0
  9
$DIMALTD
 70
     3
  9
$DIMALTF
 40
0.03937007874016
  9
$DIMLFAC
 40
1.0
  9
$DIMTOFL
 70
     1
  9
$DIMTVP
 40
0.0
  9
$DIMTIX
 70
     0
  9
$DIMSOXD
 70
     0
  9
$DIMSAH
 70
     0
  9
$DIMBLK1
  1

  9
$DIMBLK2
  1

  9
$DIMSTYLE
  2
ISO-25
  9
$DIMCLRD
 70
     0
  9
$DIMCLRE
 70
     0
  9
$DIMCLRT
 70
     0
  9
$DIMTFAC
 40
1.0
  9
$DIMGAP
 40
0.625
  9
$DIMJUST
 70
     0
  9
$DIMSD1
 70
     0
  9
$DIMSD2
 70
     0
  9
$DIMTOLJ
 70
     0
  9
$DIMTZIN
 70
     8
  9
$DIMALTZ
 70
     0
  9
$DIMALTTZ
 70
     0
  9
$DIMFIT
 70
     3
  9
$DIMUPT
 70
     0
  9
$DIMUNIT
 70
     2
  9
$DIMDEC
 70
     2
  9
$DIMTDEC
 70
     2
  9
$DIMALTU
 70
     2
  9
$DIMALTTD
 70
     3
  9
$DIMTXSTY
  7
STANDARD
  9
$DIMAUNIT
 70
     0
  9
$LUNITS
 70
     2
  9
$LUPREC
 70
     4
  9
$SKETCHINC
 40
1.0
  9
$FILLETRAD
 40
10.0
  9
$AUNITS
 70
     0
  9
$AUPREC
 70
     0
  9
$MENU
  1
.
  9
$ELEVATION
 40
0.0
  9
$PELEVATION
 40
0.0
  9
$THICKNESS
 40
0.0
  9
$LIMCHECK
 70
     0
  9
$CHAMFERA
 40
0.0
  9
$CHAMFERB
 40
0.0
  9
$CHAMFERC
 40
0.0
  9
$CHAMFERD
 40
0.0
  9
$SKPOLY
 70
     0
  9
$TDCREATE
 40
2457961.448427697
  9
$TDUPDATE
 40
2457961.448429861
  9
$TDINDWG
 40
0.0000000116
  9
$TDUSRTIMER
 40
0.0000000116
  9
$USRTIMER
 70
     1
  9
$ANGBASE
 50
0.0
  9
$ANGDIR
 70
     0
  9
$PDMODE
 70
     0
  9
$PDSIZE
 40
0.0
  9
$PLINEWID
 40
0.0
  9
$COORDS
 70
     1
  9
$SPLFRAME
 70
     0
  9
$SPLINETYPE
 70
     6
  9
$SPLINESEGS
 70
     8
  9
$ATTDIA
 70
     0
  9
$ATTREQ
 70
     1
  9
$HANDLING
 70
     1
  9
$HANDSEED
  5
497
  9
$SURFTAB1
 70
     6
  9
$SURFTAB2
 70
     6
  9
$SURFTYPE
 70
     6
  9
$SURFU
 70
     6
  9
$SURFV
 70
     6
  9
$UCSNAME
  2

  9
$UCSORG
 10
0.0
 20
0.0
 30
0.0
  9
$UCSXDIR
 10
1.0
 20
0.0
 30
0.0
  9
$UCSYDIR
 10
0.0
 20
1.0
 30
0.0
  9
$PUCSNAME
  2

  9
$PUCSORG
 10
0.0
 20
0.0
 30
0.0
  9
$PUCSXDIR
 10
1.0
 20
0.0
 30
0.0
  9
$PUCSYDIR
 10
0.0
 20
1.0
 30
0.0
  9
$USERI1
 70
     0
  9
$USERI2
 70
     0
  9
$USERI3
 70
     0
  9
$USERI4
 70
     0
  9
$USERI5
 70
     0
  9
$USERR1
 40
0.0
  9
$USERR2
 40
0.0
  9
$USERR3
 40
0.0
  9
$USERR4
 40
0.0
  9
$USERR5
 40
0.0
  9
$WORLDVIEW
 70
     1
  9
$SHADEDGE
 70
     3
  9
$SHADEDIF
 70
    70
  9
$TILEMODE
 70
     1
  9
$MAXACTVP
 70
    64
  9
$PINSBASE
 10
0.0
 20
0.0
 30
0.0
  9
$PLIMCHECK
 70
     0
  9
$PEXTMIN
 10
1.000000000000000E+20
 20
1.000000000000000E+20
 30
1.000000000000000E+20
  9
$PEXTMAX
 10
-1.000000000000000E+20
 20
-1.000000000000000E+20
 30
-1.000000000000000E+20
  9
$PLIMMIN
 10
0.0
 20
0.0
  9
$PLIMMAX
 10
420.0
 20
297.0
  9
$UNITMODE
 70
     0
  9
$VISRETAIN
 70
     1
  9
$PLINEGEN
 70
     0
  9
$PSLTSCALE
 70
     1
  9
$TREEDEPTH
 70
  3020
  9
$PICKSTYLE
 70
     1
  9
$CMLSTYLE
  2
STANDARD
  9
$CMLJUST
 70
     0
  9
$CMLSCALE
 40
20.0
  9
$SAVEIMAGES
 70
     1
  0
ENDSEC
  0
SECTION
  2
CLASSES
  0
CLASS
  1
ACDBDICTIONARYWDFLT
  2
AcDbDictionaryWithDefault
  3
ObjectDBX Classes
 90
    32768
280
     0
281
     0
  0
CLASS
  1
VISUALSTYLE
  2
AcDbVisualStyle
  3
ObjectDBX Classes
 90
     4095
280
     0
281
     0
  0
CLASS
  1
MATERIAL
  2
AcDbMaterial
  3
ObjectDBX Classes
 90
     1153
280
     0
281
     0
  0
CLASS
  1
SCALE
  2
AcDbScale
  3
ObjectDBX Classes
 90
     1153
280
     0
281
     0
  0
CLASS
  1
TABLESTYLE
  2
AcDbTableStyle
  3
ObjectDBX Classes
 90
     4095
280
     0
281
     0
  0
CLASS
  1
MLEADERSTYLE
  2
AcDbMLeaderStyle
  3
ACDB_MLEADERSTYLE_CLASS
 90
     4095
280
     0
281
     0
  0
CLASS
  1
SUN
  2
AcDbSun
  3
SCENEOE
 90
     1153
280
     0
281
     0
  0
CLASS
  1
DICTIONARYVAR
  2
AcDbDictionaryVar
  3
ObjectDBX Classes
 90
        0
280
     0
281
     0
  0
CLASS
  1
XRECORD
  2
AcDbXrecord
  3
ObjectDBX Classes
 90
    32768
280
     0
281
     0
  0
CLASS
  1
LWPOLYLINE
  2
AcDbPolyline
  3
ObjectDBX Classes
 90
    32768
280
     0
281
     1
  0
CLASS
  1
HATCH
  2
AcDbHatch
  3
ObjectDBX Classes
 90
    32768
280
     0
281
     1
  0
CLASS
  1
ACDBPLACEHOLDER
  2
AcDbPlaceHolder
  3
ObjectDBX Classes
 90
        0
280
     0
281
     0
  0
CLASS
  1
LAYOUT
  2
AcDbLayout
  3
ObjectDBX Classes
 90
        0
280
     0
281
     0
  0
ENDSEC
  0
SECTION
  2
TABLES
  0
TABLE
  2
VPORT
  5
8
330
0
100
AcDbSymbolTable
 70
     1
  0
VPORT
  5
29
330
8
100
AcDbSymbolTableRecord
100
AcDbViewportTableRecord
  2
*ACTIVE
 70
     0
 10
0.0
 20
0.0
 11
1.0
 21
1.0
 12
0.0000000000000568
 22
-5.5
 13
0.0
 23
0.0
 14
10.0
 24
10.0
 15
10.0
 25
10.0
 16
0.0
 26
0.0
 36
1.0
 17
0.0
 27
0.0
 37
0.0
 40
380.46
 41
2.211796246648793
 42
50.0
 43
0.0
 44
0.0
 50
0.0
 51
0.0
 71
     0
 72
   100
 73
     1
 74
     3
 75
     0
 76
     0
 77
     0
 78
     0
  0
ENDTAB
  0
TABLE
  2
LTYPE
  5
5
330
0
100
AcDbSymbolTable
 70
     1
  0
LTYPE
  5
14
330
5
100
AcDbSymbolTableRecord
100
AcDbLinetypeTableRecord
  2
BYBLOCK
 70
     0
  3

 72
    65
 73
     0
 40
0.0
  0
LTYPE
  5
15
330
5
100
AcDbSymbolTableRecord
100
AcDbLinetypeTableRecord
  2
BYLAYER
 70
     0
  3

 72
    65
 73
     0
 40
0.0
  0
LTYPE
  5
16
330
5
100
AcDbSymbolTableRecord
100
AcDbLinetypeTableRecord
  2
CONTINUOUS
 70
     0
  3
Solid line
 72
    65
 73
     0
 40
0.0
  0
ENDTAB
  0
TABLE
  2
LAYER
  5
2
330
0
100
AcDbSymbolTable
 70
     4
  0
LAYER
  5
10
330
2
100
AcDbSymbolTableRecord
100
AcDbLayerTableRecord
  2
0
 70
     0
 62
     7
  6
CONTINUOUS
  0
LAYER
  5
6E
330
2
100
AcDbSymbolTableRecord
100
AcDbLayerTableRecord
  2
THICK
 70
     0
 62
     7
  6
CONTINUOUS
  0
LAYER
  5
6F
330
2
100
AcDbSymbolTableRecord
100
AcDbLayerTableRecord
  2
HIDDEN
 70
     0
 62
     7
  6
CONTINUOUS
  0
LAYER
  5
70
330
2
100
AcDbSymbolTableRecord
100
AcDbLayerTableRecord
  2
HASHLINES
 70
     0
 62
     7
  6
CONTINUOUS
  0
ENDTAB
  0
TABLE
  2
STYLE
  5
3
330
0
100
AcDbSymbolTable
 70
     1
  0
STYLE
  5
11
330
3
100
AcDbSymbolTableRecord
100
AcDbTextStyleTableRecord
  2
STANDARD
 70
     0
 40
0.0
 41
1.0
 50
0.0
 71
     0
 42
2.5
  3
txt
  4

  0
ENDTAB
  0
TABLE
  2
VIEW
  5
6
330
0
100
AcDbSymbolTable
 70
     0
  0
ENDTAB
  0
TABLE
  2
UCS
  5
7
330
0
100
AcDbSymbolTable
 70
     0
  0
ENDTAB
  0
TABLE
  2
APPID
  5
9
330
0
100
AcDbSymbolTable
 70
     3
  0
APPID
  5
12
330
9
100
AcDbSymbolTableRecord
100
AcDbRegAppTableRecord
  2
ACAD
 70
     0
  0
APPID
  5
71
330
9
100
AcDbSymbolTableRecord
100
AcDbRegAppTableRecord
  2
DBPROPERTIES
 70
     0
  0
APPID
  5
496
330
9
100
AcDbSymbolTableRecord
100
AcDbRegAppTableRecord
  2
ACAD_MLEADERVER
 70
     0
  0
ENDTAB
  0
TABLE
  2
DIMSTYLE
  5
A
330
0
100
AcDbSymbolTable
 70
     1
  0
DIMSTYLE
105
27
330
A
100
AcDbSymbolTableRecord
100
AcDbDimStyleTableRecord
  2
ISO-25
 70
     0
  3

  4

  5

  6

  7

 40
1.0
 41
2.5
 42
0.625
 43
3.75
 44
1.25
 45
0.0
 46
0.0
 47
0.0
 48
0.0
140
2.5
141
2.5
142
0.0
143
0.03937007874016
144
1.0
145
0.0
146
1.0
147
0.625
 71
     0
 72
     0
 73
     0
 74
     0
 75
     0
 76
     0
 77
     1
 78
     8
170
     0
171
     3
172
     1
173
     0
174
     0
175
     0
176
     0
177
     0
178
     0
270
     2
271
     2
272
     2
273
     2
274
     3
340
11
275
     0
280
     0
281
     0
282
     0
283
     0
284
     8
285
     0
286
     0
287
     3
288
     0
  0
ENDTAB
  0
TABLE
  2
BLOCK_RECORD
  5
1
330
0
100
AcDbSymbolTable
 70
     0
  0
BLOCK_RECORD
  5
1F
330
1
100
AcDbSymbolTableRecord
100
AcDbBlockTableRecord
  2
*MODEL_SPACE
  0
BLOCK_RECORD
  5
1B
330
1
100
AcDbSymbolTableRecord
100
AcDbBlockTableRecord
  2
*PAPER_SPACE
  0
ENDTAB
  0
ENDSEC
  0
SECTION
  2
BLOCKS
  0
BLOCK
  5
20
330
1F
100
AcDbEntity
  8
0
100
AcDbBlockBegin
  2
*MODEL_SPACE
 70
     0
 10
0.0
 20
0.0
 30
0.0
  3
*MODEL_SPACE
  1

  0
ENDBLK
  5
21
330
1F
100
AcDbEntity
  8
0
100
AcDbBlockEnd
  0
BLOCK
  5
1C
330
1B
100
AcDbEntity
 67
     1
  8
0
100
AcDbBlockBegin
  2
*PAPER_SPACE
 70
     0
 10
0.0
 20
0.0
 30
0.0
  3
*PAPER_SPACE
  1

  0
ENDBLK
  5
1D
330
1B
100
AcDbEntity
 67
     1
  8
0
100
AcDbBlockEnd
  0
ENDSEC
  0
SECTION
  2
ENTITIES
  0
LINE
  5
72
330
1F
100
AcDbEntity
  8
HIDDEN
100
AcDbLine
 10
-326.0
 20
-159.12
 30
0.0
 11
-326.0
 21
-159.12
 31
0.0
1001
DBPROPERTIES
1002
{
1000
PbHidd
1002
}
  0
LINE
  5
73
330
1F
100
AcDbEntity
  8
THICK
100
AcDbLine
 10
-326.0
 20
-159.12
 30
0.0
 11
-326.0
 21
0.0
 31
0.0
1001
DBPROPERTIES
1002
{
1000
PbThick
1002
}
  0
LINE
  5
74
330
1F
100
AcDbEntity
  8
THICK
100
AcDbLine
 10
-326.0
 20
0.0
 30
0.0
 11
-326.0
 21
181.0
 31
0.0
1001
DBPROPERTIES
1002
{
1000
PbThick
1002
}
  0
LINE
  5
75
330
1F
100
AcDbEntity
  8
HIDDEN
100
AcDbLine
 10
-61.875
 20
-36.89390182495117
 30
0.0
 11
-62.69013977050781
 21
-36.81622695922852
 31
0.0
1001
DBPROPERTIES
1002
{
1000
PbHidd
1002
}
  0
LINE
  5
76
330
1F
100
AcDbEntity
  8
HIDDEN
100
AcDbLine
 10
-62.69013977050781
 20
-36.81622695922852
 30
0.0
 11
-63.48519134521484
 21
-36.59019470214844
 31
0.0
1001
DBPROPERTIES
1002
{
1000
PbHidd
1002
}
  0
LINE
  5
77
330
1F
100
AcDbEntity
  8
HIDDEN
100
AcDbLine
 10
-63.48519134521484
 20
-36.59019470214844
 30
0.0
 11
-64.24492645263672
 21
-36.23149871826172
 31
0.0
1001
DBPROPERTIES
1002
{
1000
PbHidd
1002
}
  0
LINE
  5
78
330
1F
100
AcDbEntity
  8
HIDDEN
100
AcDbLine
 10
-64.24492645263672
 20
-36.23149871826172
 30
0.0
 11
-64.95721435546875
 21
-35.76338958740234
 31
0.0
1001
DBPROPERTIES
1002
{
1000
PbHidd
1002
}
  0
LINE
  5
79
330
1F
100
AcDbEntity
  8
HIDDEN
100
AcDbLine
 10
-64.95721435546875
 20
-35.76338958740234
 30
0.0
 11
-65.6140365600586
 21
-35.21259689331055
 31
0.0
1001
DBPROPERTIES
1002
{
1000
PbHidd
1002
}
  0
LINE
  5
7A
330
1F
100
AcDbEntity
  8
HIDDEN
100
AcDbLine
 10
-65.6140365600586
 20
-35.21259689331055
 30
0.0
 11
-66.20863342285156
 21
-34.60884094238281
 31
0.0
1001
DBPROPERTIES
1002
{
1000
PbHidd
1002
}
  0
LINE
  5
7B
330
1F
100
AcDbEntity
  8
HIDDEN
100
AcDbLine
 10
-66.20863342285156
 20
-34.60884094238281
 30
0.0
 11
-66.73717498779297
 21
-33.98257827758789
 31
0.0
1001
DBPROPERTIES
1002
{
1000
PbHidd
1002
}
  0
LINE
  5
7C
330
1F
100
AcDbEntity
  8
HIDDEN
100
AcDbLine
 10
-66.73717498779297
 20
-33.98257827758789
 30
0.0
 11
-67.21553039550781
 21
-33.33780670166016
 31
0.0
1001
DBPROPERTIES
1002
{
1000
PbHidd
1002
}
  0
LINE
  5
7D
330
1F
100
AcDbEntity
  8
HIDDEN
100
AcDbLine
 10
-67.21553039550781
 20
-33.33780670166016
 30
0.0
 11
-67.65536499023438
 21
-32.67336654663086
 31
0.0
1001
DBPROPERTIES
1002
{
1000
PbHidd
1002
}
  0
LINE
  5
7E
330
1F
100
AcDbEntity
  8
HIDDEN
100
AcDbLine
 10
-67.65536499023438
 20
-32.67336654663086
 30
0.0
 11
-68.06320190429688
 21
-31.99227714538574
 31
0.0
1001
DBPROPERTIES
1002
{
1000
PbHidd
1002
}
  0
LINE
  5
7F
330
1F
100
AcDbEntity
  8
HIDDEN
100
AcDbLine
 10
-68.06320190429688
 20
-31.99227714538574
 30
0.0
 11
-68.44329071044922
 21
-31.29623031616211
 31
0.0
1001
DBPROPERTIES
1002
{
1000
PbHidd
1002
}
  0
LINE
  5
80
330
1F
100
AcDbEntity
  8
HIDDEN
100
AcDbLine
 10
-68.44329071044922
 20
-31.29623031616211
 30
0.0
 11
-68.79898071289062
 21
-30.58639907836914
 31
0.0
1001
DBPROPERTIES
1002
{
1000
PbHidd
1002
}
  0
LINE
  5
81
330
1F
100
AcDbEntity
  8
HIDDEN
100
AcDbLine
 10
-68.79898071289062
 20
-30.58639907836914
 30
0.0
 11
-69.13321685791016
 21
-29.86394691467285
 31
0.0
1001
DBPROPERTIES
1002
{
1000
PbHidd
1002
}
  0
LINE
  5
82
330
1F
100
AcDbEntity
  8
HIDDEN
100
AcDbLine
 10
-69.13321685791016
 20
-29.86394691467285
 30
0.0
 11
-69.44795227050781
 21
-29.12967681884766
 31
0.0
1001
DBPROPERTIES
1002
{
1000
PbHidd
1002
}
  0
LINE
  5
83
330
1F
100
AcDbEntity
  8
HIDDEN
100
AcDbLine
 10
-69.44795227050781
 20
-29.12967681884766
 30
0.0
 11
-69.74504852294922
 21
-28.38422966003418
 31
0.0
1001
DBPROPERTIES
1002
{
1000
PbHidd
1002
}
  0
LINE
  5
84
330
1F
100
AcDbEntity
  8
HIDDEN
100
AcDbLine
 10
-69.74504852294922
 20
-28.38422966003418
 30
0.0
 11
-70.0260238647461
 21
-27.62811851501465
 31
0.0
1001
DBPROPERTIES
1002
{
1000
PbHidd
1002
}
  0
LINE
  5
85
330
1F
100
AcDbEntity
  8
HIDDEN
100
AcDbLine
 10
-70.0260238647461
 20
-27.62811851501465
 30
0.0
 11
-70.29205322265625
 21
-26.86172294616699
 31
0.0
1001
DBPROPERTIES
1002
{
1000
PbHidd
1002
}
  0
LINE
  5
86
330
1F
100
AcDbEntity
  8
HIDDEN
100
AcDbLine
 10
-70.29205322265625
 20
-26.86172294616699
 30
0.0
 11
-70.54424285888672
 21
-26.08559226989746
 31
0.0
1001
DBPROPERTIES
1002
{
1000
PbHidd
1002
}
  0
LINE
  5
87
330
1F
100
AcDbEntity
  8
HIDDEN
100
AcDbLine
 10
-70.54424285888672
 20
-26.08559226989746
 30
0.0
 11
-70.78334045410156
 21
-25.30058097839355
 31
0.0
1001
DBPROPERTIES
1002
{
1000
PbHidd
1002
}
  0
LINE
  5
88
330
1F
100
AcDbEntity
  8
HIDDEN
100
AcDbLine
 10
-70.78334045410156
 20
-25.30058097839355
 30
0.0
 11
-71.00996398925781
 21
-24.50714874267578
 31
0.0
1001
DBPROPERTIES
1002
{
1000
PbHidd
1002
}
  0
LINE
  5
89
330
1F
100
AcDbEntity
  8
HIDDEN
100
AcDbLine
 10
-71.00996398925781
 20
-24.50714874267578
 30
0.0
 11
-71.2247543334961
 21
-23.70573043823242
 31
0.0
1001
DBPROPERTIES
1002
{
1000
PbHidd
1002
}
  0
LINE
  5
8A
330
1F
100
AcDbEntity
  8
HIDDEN
100
AcDbLine
 10
-71.2247543334961
 20
-23.70573043823242
 30
0.0
 11
-71.4283447265625
 21
-22.89675903320312
 31
0.0
1001
DBPROPERTIES
1002
{
1000
PbHidd
1002
}
  0
LINE
  5
8B
330
1F
100
AcDbEntity
  8
HIDDEN
100
AcDbLine
 10
-71.4283447265625
 20
-22.89675903320312
 30
0.0
 11
-71.6213607788086
 21
-22.08066558837891
 31
0.0
1001
DBPROPERTIES
1002
{
1000
PbHidd
1002
}
  0
LINE
  5
8C
330
1F
100
AcDbEntity
  8
HIDDEN
100
AcDbLine
 10
-71.6213607788086
 20
-22.08066558837891
 30
0.0
 11
-71.80422973632812
 21
-21.25784301757812
 31
0.0
1001
DBPROPERTIES
1002
{
1000
PbHidd
1002
}
  0
LINE
  5
8D
330
1F
100
AcDbEntity
  8
HIDDEN
100
AcDbLine
 10
-71.80422973632812
 20
-21.25784301757812
 30
0.0
 11
-71.977294921875
 21
-20.42865753173828
 31
0.0
1001
DBPROPERTIES
1002
{
1000
PbHidd
1002
}
  0
LINE
  5
8E
330
1F
100
AcDbEntity
  8
HIDDEN
100
AcDbLine
 10
-71.977294921875
 20
-20.42865753173828
 30
0.0
 11
-72.1408920288086
 21
-19.59348297119141
 31
0.0
1001
DBPROPERTIES
1002
{
1000
PbHidd
1002
}
  0
LINE
  5
8F
330
1F
100
AcDbEntity
  8
HIDDEN
100
AcDbLine
 10
-72.1408920288086
 20
-19.59348297119141
 30
0.0
 11
-72.29537963867188
 21
-18.7526912689209
 31
0.0
1001
DBPROPERTIES
1002
{
1000
PbHidd
1002
}
  0
LINE
  5
90
330
1F
100
AcDbEntity
  8
HIDDEN
100
AcDbLine
 10
-72.29537963867188
 20
-18.7526912689209
 30
0.0
 11
-72.44108581542969
 21
-17.90666198730469
 31
0.0
1001
DBPROPERTIES
1002
{
1000
PbHidd
1002
}
  0
LINE
  5
91
330
1F
100
AcDbEntity
  8
HIDDEN
100
AcDbLine
 10
-72.44108581542969
 20
-17.90666198730469
 30
0.0
 11
-72.57820892333984
 21
-17.05635452270508
 31
0.0
1001
DBPROPERTIES
1002
{
1000
PbHidd
1002
}
  0
LINE
  5
92
330
1F
100
AcDbEntity
  8
HIDDEN
100
AcDbLine
 10
-72.57820892333984
 20
-17.05635452270508
 30
0.0
 11
-72.70691680908203
 21
-16.20257759094238
 31
0.0
1001
DBPROPERTIES
1002
{
1000
PbHidd
1002
}
  0
LINE
  5
93
330
1F
100
AcDbEntity
  8
HIDDEN
100
AcDbLine
 10
-72.70691680908203
 20
-16.20257759094238
 30
0.0
 11
-72.82743072509766
 21
-15.34584331512451
 31
0.0
1001
DBPROPERTIES
1002
{
1000
PbHidd
1002
}
  0
LINE
  5
94
330
1F
100
AcDbEntity
  8
HIDDEN
100
AcDbLine
 10
-72.82743072509766
 20
-15.34584331512451
 30
0.0
 11
-72.93997955322266
 21
-14.48666191101074
 31
0.0
1001
DBPROPERTIES
1002
{
1000
PbHidd
1002
}
  0
LINE
  5
95
330
1F
100
AcDbEntity
  8
HIDDEN
100
AcDbLine
 10
-72.93997955322266
 20
-14.48666191101074
 30
0.0
 11
-73.0447769165039
 21
-13.62554550170898
 31
0.0
1001
DBPROPERTIES
1002
{
1000
PbHidd
1002
}
  0
LINE
  5
96
330
1F
100
AcDbEntity
  8
HIDDEN
100
AcDbLine
 10
-73.0447769165039
 20
-13.62554550170898
 30
0.0
 11
-73.14204406738281
 21
-12.76300430297852
 31
0.0
1001
DBPROPERTIES
1002
{
1000
PbHidd
1002
}
  0
LINE
  5
97
330
1F
100
AcDbEntity
  8
HIDDEN
100
AcDbLine
 10
-73.14204406738281
 20
-12.76300430297852
 30
0.0
 11
-73.23194885253906
 21
-11.89954662322998
 31
0.0
1001
DBPROPERTIES
1002
{
1000
PbHidd
1002
}
  0
LINE
  5
98
330
1F
100
AcDbEntity
  8
HIDDEN
100
AcDbLine
 10
-73.23194885253906
 20
-11.89954662322998
 30
0.0
 11
-73.31465148925781
 21
-11.03568077087402
 31
0.0
1001
DBPROPERTIES
1002
{
1000
PbHidd
1002
}
  0
LINE
  5
99
330
1F
100
AcDbEntity
  8
HIDDEN
100
AcDbLine
 10
-73.31465148925781
 20
-11.03568077087402
 30
0.0
 11
-73.39032745361328
 21
-10.17191600799561
 31
0.0
1001
DBPROPERTIES
1002
{
1000
PbHidd
1002
}
  0
LINE
  5
9A
330
1F
100
AcDbEntity
  8
HIDDEN
100
AcDbLine
 10
-73.39032745361328
 20
-10.17191600799561
 30
0.0
 11
-73.45914459228516
 21
-9.308761596679688
 31
0.0
1001
DBPROPERTIES
1002
{
1000
PbHidd
1002
}
  0
LINE
  5
9B
330
1F
100
AcDbEntity
  8
HIDDEN
100
AcDbLine
 10
-73.45914459228516
 20
-9.308761596679688
 30
0.0
 11
-73.5212631225586
 21
-8.446723937988281
 31
0.0
1001
DBPROPERTIES
1002
{
1000
PbHidd
1002
}
  0
LINE
  5
9C
330
1F
100
AcDbEntity
  8
HIDDEN
100
AcDbLine
 10
-73.5212631225586
 20
-8.446723937988281
 30
0.0
 11
-73.57683563232422
 21
-7.586313724517822
 31
0.0
1001
DBPROPERTIES
1002
{
1000
PbHidd
1002
}
  0
LINE
  5
9D
330
1F
100
AcDbEntity
  8
HIDDEN
100
AcDbLine
 10
-73.57683563232422
 20
-7.586313724517822
 30
0.0
 11
-73.6259994506836
 21
-6.728039741516113
 31
0.0
1001
DBPROPERTIES
1002
{
1000
PbHidd
1002
}
  0
LINE
  5
9E
330
1F
100
AcDbEntity
  8
HIDDEN
100
AcDbLine
 10
-73.6259994506836
 20
-6.728039741516113
 30
0.0
 11
-73.66888427734375
 21
-5.87241268157959
 31
0.0
1001
DBPROPERTIES
1002
{
1000
PbHidd
1002
}
  0
LINE
  5
9F
330
1F
100
AcDbEntity
  8
HIDDEN
100
AcDbLine
 10
-73.66888427734375
 20
-5.87241268157959
 30
0.0
 11
-73.70562744140625
 21
-5.019943237304688
 31
0.0
1001
DBPROPERTIES
1002
{
1000
PbHidd
1002
}
  0
LINE
  5
A0
330
1F
100
AcDbEntity
  8
HIDDEN
100
AcDbLine
 10
-73.70562744140625
 20
-5.019943237304688
 30
0.0
 11
-73.7363510131836
 21
-4.171140670776367
 31
0.0
1001
DBPROPERTIES
1002
{
1000
PbHidd
1002
}
  0
LINE
  5
A1
330
1F
100
AcDbEntity
  8
HIDDEN
100
AcDbLine
 10
-73.7363510131836
 20
-4.171140670776367
 30
0.0
 11
-73.76119232177734
 21
-3.326516389846802
 31
0.0
1001
DBPROPERTIES
1002
{
1000
PbHidd
1002
}
  0
LINE
  5
A2
330
1F
100
AcDbEntity
  8
HIDDEN
100
AcDbLine
 10
-73.76119232177734
 20
-3.326516389846802
 30
0.0
 11
-73.78028106689453
 21
-2.486579656600952
 31
0.0
1001
DBPROPERTIES
1002
{
1000
PbHidd
1002
}
  0
LINE
  5
A3
330
1F
100
AcDbEntity
  8
HIDDEN
100
AcDbLine
 10
-73.78028106689453
 20
-2.486579656600952
 30
0.0
 11
-73.79375457763672
 21
-1.651841282844543
 31
0.0
1001
DBPROPERTIES
1002
{
1000
PbHidd
1002
}
  0
LINE
  5
A4
330
1F
100
AcDbEntity
  8
HIDDEN
100
AcDbLine
 10
-73.79375457763672
 20
-1.651841282844543
 30
0.0
 11
-73.80174255371094
 21
-0.8228113055229187
 31
0.0
1001
DBPROPERTIES
1002
{
1000
PbHidd
1002
}
  0
LINE
  5
A5
330
1F
100
AcDbEntity
  8
HIDDEN
100
AcDbLine
 10
-73.80174255371094
 20
-0.8228113055229187
 30
0.0
 11
-73.80437469482422
 21
0.0
 31
0.0
1001
DBPROPERTIES
1002
{
1000
PbHidd
1002
}
  0
LINE
  5
A6
330
1F
100
AcDbEntity
  8
THICK
100
AcDbLine
 10
326.0
 20
0.0000000000000443
 30
0.0
 11
326.0
 21
-159.12
 31
0.0
1001
DBPROPERTIES
1002
{
1000
PbThick
1002
}
  0
LINE
  5
A7
330
1F
100
AcDbEntity
  8
HIDDEN
100
AcDbLine
 10
73.80437469482422
 20
0.0
 30
0.0
 11
73.80174255371094
 21
-0.8228113055229187
 31
0.0
1001
DBPROPERTIES
1002
{
1000
PbHidd
1002
}
  0
LINE
  5
A8
330
1F
100
AcDbEntity
  8
HIDDEN
100
AcDbLine
 10
73.80174255371094
 20
-0.8228113055229187
 30
0.0
 11
73.79375457763672
 21
-1.651841282844543
 31
0.0
1001
DBPROPERTIES
1002
{
1000
PbHidd
1002
}
  0
LINE
  5
A9
330
1F
100
AcDbEntity
  8
HIDDEN
100
AcDbLine
 10
73.79375457763672
 20
-1.651841282844543
 30
0.0
 11
73.78028106689453
 21
-2.486579656600952
 31
0.0
1001
DBPROPERTIES
1002
{
1000
PbHidd
1002
}
  0
LINE
  5
AA
330
1F
100
AcDbEntity
  8
HIDDEN
100
AcDbLine
 10
73.78028106689453
 20
-2.486579656600952
 30
0.0
 11
73.76119232177734
 21
-3.326516389846802
 31
0.0
1001
DBPROPERTIES
1002
{
1000
PbHidd
1002
}
  0
LINE
  5
AB
330
1F
100
AcDbEntity
  8
HIDDEN
100
AcDbLine
 10
73.76119232177734
 20
-3.326516389846802
 30
0.0
 11
73.7363510131836
 21
-4.171140670776367
 31
0.0
1001
DBPROPERTIES
1002
{
1000
PbHidd
1002
}
  0
LINE
  5
AC
330
1F
100
AcDbEntity
  8
HIDDEN
100
AcDbLine
 10
73.7363510131836
 20
-4.171140670776367
 30
0.0
 11
73.70562744140625
 21
-5.019943237304688
 31
0.0
1001
DBPROPERTIES
1002
{
1000
PbHidd
1002
}
  0
LINE
  5
AD
330
1F
100
AcDbEntity
  8
HIDDEN
100
AcDbLine
 10
73.70562744140625
 20
-5.019943237304688
 30
0.0
 11
73.66888427734375
 21
-5.87241268157959
 31
0.0
1001
DBPROPERTIES
1002
{
1000
PbHidd
1002
}
  0
LINE
  5
AE
330
1F
100
AcDbEntity
  8
HIDDEN
100
AcDbLine
 10
73.66888427734375
 20
-5.87241268157959
 30
0.0
 11
73.6259994506836
 21
-6.728039741516113
 31
0.0
1001
DBPROPERTIES
1002
{
1000
PbHidd
1002
}
  0
LINE
  5
AF
330
1F
100
AcDbEntity
  8
HIDDEN
100
AcDbLine
 10
73.6259994506836
 20
-6.728039741516113
 30
0.0
 11
73.57683563232422
 21
-7.586313724517822
 31
0.0
1001
DBPROPERTIES
1002
{
1000
PbHidd
1002
}
  0
LINE
  5
B0
330
1F
100
AcDbEntity
  8
HIDDEN
100
AcDbLine
 10
73.57683563232422
 20
-7.586313724517822
 30
0.0
 11
73.5212631225586
 21
-8.446723937988281
 31
0.0
1001
DBPROPERTIES
1002
{
1000
PbHidd
1002
}
  0
LINE
  5
B1
330
1F
100
AcDbEntity
  8
HIDDEN
100
AcDbLine
 10
73.5212631225586
 20
-8.446723937988281
 30
0.0
 11
73.45914459228516
 21
-9.308761596679688
 31
0.0
1001
DBPROPERTIES
1002
{
1000
PbHidd
1002
}
  0
LINE
  5
B2
330
1F
100
AcDbEntity
  8
HIDDEN
100
AcDbLine
 10
73.45914459228516
 20
-9.308761596679688
 30
0.0
 11
73.39032745361328
 21
-10.17191600799561
 31
0.0
1001
DBPROPERTIES
1002
{
1000
PbHidd
1002
}
  0
LINE
  5
B3
330
1F
100
AcDbEntity
  8
HIDDEN
100
AcDbLine
 10
73.39032745361328
 20
-10.17191600799561
 30
0.0
 11
73.31465148925781
 21
-11.03568077087402
 31
0.0
1001
DBPROPERTIES
1002
{
1000
PbHidd
1002
}
  0
LINE
  5
B4
330
1F
100
AcDbEntity
  8
HIDDEN
100
AcDbLine
 10
73.31465148925781
 20
-11.03568077087402
 30
0.0
 11
73.23194885253906
 21
-11.89954662322998
 31
0.0
1001
DBPROPERTIES
1002
{
1000
PbHidd
1002
}
  0
LINE
  5
B5
330
1F
100
AcDbEntity
  8
HIDDEN
100
AcDbLine
 10
73.23194885253906
 20
-11.89954662322998
 30
0.0
 11
73.14204406738281
 21
-12.76300430297852
 31
0.0
1001
DBPROPERTIES
1002
{
1000
PbHidd
1002
}
  0
LINE
  5
B6
330
1F
100
AcDbEntity
  8
HIDDEN
100
AcDbLine
 10
73.14204406738281
 20
-12.76300430297852
 30
0.0
 11
73.0447769165039
 21
-13.62554550170898
 31
0.0
1001
DBPROPERTIES
1002
{
1000
PbHidd
1002
}
  0
LINE
  5
B7
330
1F
100
AcDbEntity
  8
HIDDEN
100
AcDbLine
 10
73.0447769165039
 20
-13.62554550170898
 30
0.0
 11
72.93997955322266
 21
-14.48666191101074
 31
0.0
1001
DBPROPERTIES
1002
{
1000
PbHidd
1002
}
  0
LINE
  5
B8
330
1F
100
AcDbEntity
  8
HIDDEN
100
AcDbLine
 10
72.93997955322266
 20
-14.48666191101074
 30
0.0
 11
72.82743072509766
 21
-15.34584331512451
 31
0.0
1001
DBPROPERTIES
1002
{
1000
PbHidd
1002
}
  0
LINE
  5
B9
330
1F
100
AcDbEntity
  8
HIDDEN
100
AcDbLine
 10
72.82743072509766
 20
-15.34584331512451
 30
0.0
 11
72.70691680908203
 21
-16.20257759094238
 31
0.0
1001
DBPROPERTIES
1002
{
1000
PbHidd
1002
}
  0
LINE
  5
BA
330
1F
100
AcDbEntity
  8
HIDDEN
100
AcDbLine
 10
72.70691680908203
 20
-16.20257759094238
 30
0.0
 11
72.57820892333984
 21
-17.05635452270508
 31
0.0
1001
DBPROPERTIES
1002
{
1000
PbHidd
1002
}
  0
LINE
  5
BB
330
1F
100
AcDbEntity
  8
HIDDEN
100
AcDbLine
 10
72.57820892333984
 20
-17.05635452270508
 30
0.0
 11
72.44108581542969
 21
-17.90666198730469
 31
0.0
1001
DBPROPERTIES
1002
{
1000
PbHidd
1002
}
  0
LINE
  5
BC
330
1F
100
AcDbEntity
  8
HIDDEN
100
AcDbLine
 10
72.44108581542969
 20
-17.90666198730469
 30
0.0
 11
72.29537963867188
 21
-18.7526912689209
 31
0.0
1001
DBPROPERTIES
1002
{
1000
PbHidd
1002
}
  0
LINE
  5
BD
330
1F
100
AcDbEntity
  8
HIDDEN
100
AcDbLine
 10
72.29537963867188
 20
-18.7526912689209
 30
0.0
 11
72.1408920288086
 21
-19.59348297119141
 31
0.0
1001
DBPROPERTIES
1002
{
1000
PbHidd
1002
}
  0
LINE
  5
BE
330
1F
100
AcDbEntity
  8
HIDDEN
100
AcDbLine
 10
72.1408920288086
 20
-19.59348297119141
 30
0.0
 11
71.977294921875
 21
-20.42865753173828
 31
0.0
1001
DBPROPERTIES
1002
{
1000
PbHidd
1002
}
  0
LINE
  5
BF
330
1F
100
AcDbEntity
  8
HIDDEN
100
AcDbLine
 10
71.977294921875
 20
-20.42865753173828
 30
0.0
 11
71.80422973632812
 21
-21.25784301757812
 31
0.0
1001
DBPROPERTIES
1002
{
1000
PbHidd
1002
}
  0
LINE
  5
C0
330
1F
100
AcDbEntity
  8
HIDDEN
100
AcDbLine
 10
71.80422973632812
 20
-21.25784301757812
 30
0.0
 11
71.6213607788086
 21
-22.08066558837891
 31
0.0
1001
DBPROPERTIES
1002
{
1000
PbHidd
1002
}
  0
LINE
  5
C1
330
1F
100
AcDbEntity
  8
HIDDEN
100
AcDbLine
 10
71.6213607788086
 20
-22.08066558837891
 30
0.0
 11
71.4283447265625
 21
-22.89675903320312
 31
0.0
1001
DBPROPERTIES
1002
{
1000
PbHidd
1002
}
  0
LINE
  5
C2
330
1F
100
AcDbEntity
  8
HIDDEN
100
AcDbLine
 10
71.4283447265625
 20
-22.89675903320312
 30
0.0
 11
71.2247543334961
 21
-23.70573043823242
 31
0.0
1001
DBPROPERTIES
1002
{
1000
PbHidd
1002
}
  0
LINE
  5
C3
330
1F
100
AcDbEntity
  8
HIDDEN
100
AcDbLine
 10
71.2247543334961
 20
-23.70573043823242
 30
0.0
 11
71.00996398925781
 21
-24.50714874267578
 31
0.0
1001
DBPROPERTIES
1002
{
1000
PbHidd
1002
}
  0
LINE
  5
C4
330
1F
100
AcDbEntity
  8
HIDDEN
100
AcDbLine
 10
71.00996398925781
 20
-24.50714874267578
 30
0.0
 11
70.78334045410156
 21
-25.30058097839355
 31
0.0
1001
DBPROPERTIES
1002
{
1000
PbHidd
1002
}
  0
LINE
  5
C5
330
1F
100
AcDbEntity
  8
HIDDEN
100
AcDbLine
 10
70.78334045410156
 20
-25.30058097839355
 30
0.0
 11
70.54424285888672
 21
-26.08559226989746
 31
0.0
1001
DBPROPERTIES
1002
{
1000
PbHidd
1002
}
  0
LINE
  5
C6
330
1F
100
AcDbEntity
  8
HIDDEN
100
AcDbLine
 10
70.54424285888672
 20
-26.08559226989746
 30
0.0
 11
70.29205322265625
 21
-26.86172294616699
 31
0.0
1001
DBPROPERTIES
1002
{
1000
PbHidd
1002
}
  0
LINE
  5
C7
330
1F
100
AcDbEntity
  8
HIDDEN
100
AcDbLine
 10
70.29205322265625
 20
-26.86172294616699
 30
0.0
 11
70.0260238647461
 21
-27.62811851501465
 31
0.0
1001
DBPROPERTIES
1002
{
1000
PbHidd
1002
}
  0
LINE
  5
C8
330
1F
100
AcDbEntity
  8
HIDDEN
100
AcDbLine
 10
70.0260238647461
 20
-27.62811851501465
 30
0.0
 11
69.74504852294922
 21
-28.38422966003418
 31
0.0
1001
DBPROPERTIES
1002
{
1000
PbHidd
1002
}
  0
LINE
  5
C9
330
1F
100
AcDbEntity
  8
HIDDEN
100
AcDbLine
 10
69.74504852294922
 20
-28.38422966003418
 30
0.0
 11
69.44795227050781
 21
-29.12967681884766
 31
0.0
1001
DBPROPERTIES
1002
{
1000
PbHidd
1002
}
  0
LINE
  5
CA
330
1F
100
AcDbEntity
  8
HIDDEN
100
AcDbLine
 10
69.44795227050781
 20
-29.12967681884766
 30
0.0
 11
69.13321685791016
 21
-29.86394691467285
 31
0.0
1001
DBPROPERTIES
1002
{
1000
PbHidd
1002
}
  0
LINE
  5
CB
330
1F
100
AcDbEntity
  8
HIDDEN
100
AcDbLine
 10
69.13321685791016
 20
-29.86394691467285
 30
0.0
 11
68.79898071289062
 21
-30.58639907836914
 31
0.0
1001
DBPROPERTIES
1002
{
1000
PbHidd
1002
}
  0
LINE
  5
CC
330
1F
100
AcDbEntity
  8
HIDDEN
100
AcDbLine
 10
68.79898071289062
 20
-30.58639907836914
 30
0.0
 11
68.44329071044922
 21
-31.29623031616211
 31
0.0
1001
DBPROPERTIES
1002
{
1000
PbHidd
1002
}
  0
LINE
  5
CD
330
1F
100
AcDbEntity
  8
HIDDEN
100
AcDbLine
 10
68.44329071044922
 20
-31.29623031616211
 30
0.0
 11
68.06320190429688
 21
-31.99227714538574
 31
0.0
1001
DBPROPERTIES
1002
{
1000
PbHidd
1002
}
  0
LINE
  5
CE
330
1F
100
AcDbEntity
  8
HIDDEN
100
AcDbLine
 10
68.06320190429688
 20
-31.99227714538574
 30
0.0
 11
67.65536499023438
 21
-32.67336654663086
 31
0.0
1001
DBPROPERTIES
1002
{
1000
PbHidd
1002
}
  0
LINE
  5
CF
330
1F
100
AcDbEntity
  8
HIDDEN
100
AcDbLine
 10
67.65536499023438
 20
-32.67336654663086
 30
0.0
 11
67.21553039550781
 21
-33.33780670166016
 31
0.0
1001
DBPROPERTIES
1002
{
1000
PbHidd
1002
}
  0
LINE
  5
D0
330
1F
100
AcDbEntity
  8
HIDDEN
100
AcDbLine
 10
67.21553039550781
 20
-33.33780670166016
 30
0.0
 11
66.73717498779297
 21
-33.98257827758789
 31
0.0
1001
DBPROPERTIES
1002
{
1000
PbHidd
1002
}
  0
LINE
  5
D1
330
1F
100
AcDbEntity
  8
HIDDEN
100
AcDbLine
 10
66.73717498779297
 20
-33.98257827758789
 30
0.0
 11
66.20863342285156
 21
-34.60884094238281
 31
0.0
1001
DBPROPERTIES
1002
{
1000
PbHidd
1002
}
  0
LINE
  5
D2
330
1F
100
AcDbEntity
  8
HIDDEN
100
AcDbLine
 10
66.20863342285156
 20
-34.60884094238281
 30
0.0
 11
65.6140365600586
 21
-35.21259689331055
 31
0.0
1001
DBPROPERTIES
1002
{
1000
PbHidd
1002
}
  0
LINE
  5
D3
330
1F
100
AcDbEntity
  8
HIDDEN
100
AcDbLine
 10
65.6140365600586
 20
-35.21259689331055
 30
0.0
 11
64.95721435546875
 21
-35.76338958740234
 31
0.0
1001
DBPROPERTIES
1002
{
1000
PbHidd
1002
}
  0
LINE
  5
D4
330
1F
100
AcDbEntity
  8
HIDDEN
100
AcDbLine
 10
64.95721435546875
 20
-35.76338958740234
 30
0.0
 11
64.24492645263672
 21
-36.23149871826172
 31
0.0
1001
DBPROPERTIES
1002
{
1000
PbHidd
1002
}
  0
LINE
  5
D5
330
1F
100
AcDbEntity
  8
HIDDEN
100
AcDbLine
 10
64.24492645263672
 20
-36.23149871826172
 30
0.0
 11
63.48519134521484
 21
-36.59019470214844
 31
0.0
1001
DBPROPERTIES
1002
{
1000
PbHidd
1002
}
  0
LINE
  5
D6
330
1F
100
AcDbEntity
  8
HIDDEN
100
AcDbLine
 10
63.48519134521484
 20
-36.59019470214844
 30
0.0
 11
62.69013977050781
 21
-36.81622695922852
 31
0.0
1001
DBPROPERTIES
1002
{
1000
PbHidd
1002
}
  0
LINE
  5
D7
330
1F
100
AcDbEntity
  8
HIDDEN
100
AcDbLine
 10
62.69013977050781
 20
-36.81622695922852
 30
0.0
 11
61.875
 21
-36.89390182495117
 31
0.0
1001
DBPROPERTIES
1002
{
1000
PbHidd
1002
}
  0
LINE
  5
D8
330
1F
100
AcDbEntity
  8
THICK
100
AcDbLine
 10
-292.75
 20
-161.1047795690742
 30
0.0
 11
-288.75
 21
-161.1047795690742
 31
0.0
1001
DBPROPERTIES
1002
{
1000
PbThick
1002
}
  0
LINE
  5
D9
330
1F
100
AcDbEntity
  8
HIDDEN
100
AcDbLine
 10
-288.75
 20
-161.1047795690742
 30
0.0
 11
-292.75
 21
-161.1047795690742
 31
0.0
1001
DBPROPERTIES
1002
{
1000
PbHidd
1002
}
  0
LINE
  5
DA
330
1F
100
AcDbEntity
  8
HIDDEN
100
AcDbLine
 10
292.75
 20
-161.1047795690742
 30
0.0
 11
288.75
 21
-161.1047795690742
 31
0.0
1001
DBPROPERTIES
1002
{
1000
PbHidd
1002
}
  0
LINE
  5
DB
330
1F
100
AcDbEntity
  8
THICK
100
AcDbLine
 10
288.75
 20
-161.1047795690742
 30
0.0
 11
292.75
 21
-161.1047795690742
 31
0.0
1001
DBPROPERTIES
1002
{
1000
PbThick
1002
}
  0
LINE
  5
DC
330
1F
100
AcDbEntity
  8
THICK
100
AcDbLine
 10
412.5
 20
0.0000000000000382
 30
0.0
 11
412.5
 21
156.0
 31
0.0
1001
DBPROPERTIES
1002
{
1000
PbThick
1002
}
  0
LINE
  5
DD
330
1F
100
AcDbEntity
  8
THICK
100
AcDbLine
 10
-412.5
 20
-156.0
 30
0.0
 11
-412.5
 21
-0.0000000000000382
 31
0.0
1001
DBPROPERTIES
1002
{
1000
PbThick
1002
}
  0
LINE
  5
DE
330
1F
100
AcDbEntity
  8
HIDDEN
100
AcDbLine
 10
402.4999994428611
 20
148.1999998946501
 30
0.0
 11
321.9999996555868
 21
132.9781817530564
 31
0.0
1001
DBPROPERTIES
1002
{
1000
PbHidd
1002
}
  0
LINE
  5
DF
330
1F
100
AcDbEntity
  8
HIDDEN
100
AcDbLine
 10
402.5
 20
148.2
 30
0.0
 11
402.5
 21
-148.2
 31
0.0
1001
DBPROPERTIES
1002
{
1000
PbHidd
1002
}
  0
LINE
  5
E0
330
1F
100
AcDbEntity
  8
HIDDEN
100
AcDbLine
 10
321.9999996555868
 20
-132.9781817530564
 30
0.0
 11
402.4999994428611
 21
-148.1999998946501
 31
0.0
1001
DBPROPERTIES
1002
{
1000
PbHidd
1002
}
  0
LINE
  5
E1
330
1F
100
AcDbEntity
  8
HIDDEN
100
AcDbLine
 10
412.5
 20
148.2
 30
0.0
 11
402.5
 21
148.2
 31
0.0
1001
DBPROPERTIES
1002
{
1000
PbHidd
1002
}
  0
LINE
  5
E2
330
1F
100
AcDbEntity
  8
HIDDEN
100
AcDbLine
 10
402.5
 20
-148.2
 30
0.0
 11
412.5
 21
-148.2
 31
0.0
1001
DBPROPERTIES
1002
{
1000
PbHidd
1002
}
  0
LINE
  5
E3
330
1F
100
AcDbEntity
  8
HIDDEN
100
AcDbLine
 10
-402.4999994428611
 20
-148.1999998946501
 30
0.0
 11
-317.9999997872742
 21
-132.2218181415937
 31
0.0
1001
DBPROPERTIES
1002
{
1000
PbHidd
1002
}
  0
LINE
  5
E4
330
1F
100
AcDbEntity
  8
HIDDEN
100
AcDbLine
 10
-402.5
 20
148.2
 30
0.0
 11
-402.5
 21
-148.2
 31
0.0
1001
DBPROPERTIES
1002
{
1000
PbHidd
1002
}
  0
LINE
  5
E5
330
1F
100
AcDbEntity
  8
HIDDEN
100
AcDbLine
 10
-317.9999997872742
 20
132.2218181415937
 30
0.0
 11
-402.4999994428611
 21
148.1999998946501
 31
0.0
1001
DBPROPERTIES
1002
{
1000
PbHidd
1002
}
  0
LINE
  5
E6
330
1F
100
AcDbEntity
  8
HIDDEN
100
AcDbLine
 10
-412.5
 20
-148.2
 30
0.0
 11
-402.5
 21
-148.2
 31
0.0
1001
DBPROPERTIES
1002
{
1000
PbHidd
1002
}
  0
LINE
  5
E7
330
1F
100
AcDbEntity
  8
HIDDEN
100
AcDbLine
 10
-402.5
 20
148.2
 30
0.0
 11
-412.5
 21
148.2
 31
0.0
1001
DBPROPERTIES
1002
{
1000
PbHidd
1002
}
  0
LINE
  5
E8
330
1F
100
AcDbEntity
  8
HIDDEN
100
AcDbLine
 10
-318.0
 20
-177.0
 30
0.0
 11
-318.0
 21
-0.0000000000000434
 31
0.0
1001
DBPROPERTIES
1002
{
1000
PbHidd
1002
}
  0
LINE
  5
E9
330
1F
100
AcDbEntity
  8
HIDDEN
100
AcDbLine
 10
322.0
 20
0.0
 30
0.0
 11
322.0
 21
-177.0
 31
0.0
1001
DBPROPERTIES
1002
{
1000
PbHidd
1002
}
  0
LINE
  5
EA
330
1F
100
AcDbEntity
  8
HIDDEN
100
AcDbLine
 10
268.125
 20
-177.0
 30
0.0
 11
268.1250915527344
 21
-177.0
 31
0.0
1001
DBPROPERTIES
1002
{
1000
PbHidd
1002
}
  0
LINE
  5
EB
330
1F
100
AcDbEntity
  8
HIDDEN
100
AcDbLine
 10
268.1250915527344
 20
-177.0
 30
0.0
 11
268.1251525878906
 21
-177.0
 31
0.0
1001
DBPROPERTIES
1002
{
1000
PbHidd
1002
}
  0
LINE
  5
EC
330
1F
100
AcDbEntity
  8
HIDDEN
100
AcDbLine
 10
268.1251525878906
 20
-177.0
 30
0.0
 11
268.125244140625
 21
-177.0
 31
0.0
1001
DBPROPERTIES
1002
{
1000
PbHidd
1002
}
  0
LINE
  5
ED
330
1F
100
AcDbEntity
  8
HIDDEN
100
AcDbLine
 10
268.125244140625
 20
-177.0
 30
0.0
 11
268.1253356933594
 21
-177.0
 31
0.0
1001
DBPROPERTIES
1002
{
1000
PbHidd
1002
}
  0
LINE
  5
EE
330
1F
100
AcDbEntity
  8
HIDDEN
100
AcDbLine
 10
268.1253356933594
 20
-177.0
 30
0.0
 11
268.1253967285156
 21
-177.0
 31
0.0
1001
DBPROPERTIES
1002
{
1000
PbHidd
1002
}
  0
LINE
  5
EF
330
1F
100
AcDbEntity
  8
HIDDEN
100
AcDbLine
 10
268.1253967285156
 20
-177.0
 30
0.0
 11
268.12548828125
 21
-177.0
 31
0.0
1001
DBPROPERTIES
1002
{
1000
PbHidd
1002
}
  0
LINE
  5
F0
330
1F
100
AcDbEntity
  8
HIDDEN
100
AcDbLine
 10
268.12548828125
 20
-177.0
 30
0.0
 11
268.1255493164062
 21
-177.0
 31
0.0
1001
DBPROPERTIES
1002
{
1000
PbHidd
1002
}
  0
LINE
  5
F1
330
1F
100
AcDbEntity
  8
HIDDEN
100
AcDbLine
 10
268.1255493164062
 20
-177.0
 30
0.0
 11
268.1256103515625
 21
-177.0
 31
0.0
1001
DBPROPERTIES
1002
{
1000
PbHidd
1002
}
  0
LINE
  5
F2
330
1F
100
AcDbEntity
  8
HIDDEN
100
AcDbLine
 10
268.1256103515625
 20
-177.0
 30
0.0
 11
268.1256713867188
 21
-177.0
 31
0.0
1001
DBPROPERTIES
1002
{
1000
PbHidd
1002
}
  0
LINE
  5
F3
330
1F
100
AcDbEntity
  8
HIDDEN
100
AcDbLine
 10
268.1256713867188
 20
-177.0
 30
0.0
 11
268.125732421875
 21
-177.0
 31
0.0
1001
DBPROPERTIES
1002
{
1000
PbHidd
1002
}
  0
LINE
  5
F4
330
1F
100
AcDbEntity
  8
HIDDEN
100
AcDbLine
 10
268.125732421875
 20
-177.0
 30
0.0
 11
268.1257934570312
 21
-177.0
 31
0.0
1001
DBPROPERTIES
1002
{
1000
PbHidd
1002
}
  0
LINE
  5
F5
330
1F
100
AcDbEntity
  8
HIDDEN
100
AcDbLine
 10
268.1257934570312
 20
-177.0
 30
0.0
 11
268.1258239746094
 21
-177.0
 31
0.0
1001
DBPROPERTIES
1002
{
1000
PbHidd
1002
}
  0
LINE
  5
F6
330
1F
100
AcDbEntity
  8
HIDDEN
100
AcDbLine
 10
268.1258239746094
 20
-177.0
 30
0.0
 11
268.1258850097656
 21
-177.0
 31
0.0
1001
DBPROPERTIES
1002
{
1000
PbHidd
1002
}
  0
LINE
  5
F7
330
1F
100
AcDbEntity
  8
HIDDEN
100
AcDbLine
 10
268.1258850097656
 20
-177.0
 30
0.0
 11
268.1259155273438
 21
-177.0
 31
0.0
1001
DBPROPERTIES
1002
{
1000
PbHidd
1002
}
  0
LINE
  5
F8
330
1F
100
AcDbEntity
  8
HIDDEN
100
AcDbLine
 10
268.1259155273438
 20
-177.0
 30
0.0
 11
268.1259460449219
 21
-177.0
 31
0.0
1001
DBPROPERTIES
1002
{
1000
PbHidd
1002
}
  0
LINE
  5
F9
330
1F
100
AcDbEntity
  8
HIDDEN
100
AcDbLine
 10
268.1259460449219
 20
-177.0
 30
0.0
 11
268.1259765625
 21
-177.0
 31
0.0
1001
DBPROPERTIES
1002
{
1000
PbHidd
1002
}
  0
LINE
  5
FA
330
1F
100
AcDbEntity
  8
HIDDEN
100
AcDbLine
 10
268.1259765625
 20
-177.0
 30
0.0
 11
268.1259765625
 21
-177.0
 31
0.0
1001
DBPROPERTIES
1002
{
1000
PbHidd
1002
}
  0
LINE
  5
FB
330
1F
100
AcDbEntity
  8
HIDDEN
100
AcDbLine
 10
268.1259765625
 20
-177.0
 30
0.0
 11
268.1260070800781
 21
-177.0
 31
0.0
1001
DBPROPERTIES
1002
{
1000
PbHidd
1002
}
  0
LINE
  5
FC
330
1F
100
AcDbEntity
  8
HIDDEN
100
AcDbLine
 10
268.1260070800781
 20
-177.0
 30
0.0
 11
268.1260070800781
 21
-177.0
 31
0.0
1001
DBPROPERTIES
1002
{
1000
PbHidd
1002
}
  0
LINE
  5
FD
330
1F
100
AcDbEntity
  8
HIDDEN
100
AcDbLine
 10
268.1260070800781
 20
-177.0
 30
0.0
 11
268.1260070800781
 21
-177.0
 31
0.0
1001
DBPROPERTIES
1002
{
1000
PbHidd
1002
}
  0
LINE
  5
FE
330
1F
100
AcDbEntity
  8
HIDDEN
100
AcDbLine
 10
268.1260070800781
 20
-177.0
 30
0.0
 11
268.1259765625
 21
-177.0
 31
0.0
1001
DBPROPERTIES
1002
{
1000
PbHidd
1002
}
  0
LINE
  5
FF
330
1F
100
AcDbEntity
  8
HIDDEN
100
AcDbLine
 10
268.1259765625
 20
-177.0
 30
0.0
 11
268.1259765625
 21
-177.0
 31
0.0
1001
DBPROPERTIES
1002
{
1000
PbHidd
1002
}
  0
LINE
  5
100
330
1F
100
AcDbEntity
  8
HIDDEN
100
AcDbLine
 10
268.1259765625
 20
-177.0
 30
0.0
 11
268.1259460449219
 21
-177.0
 31
0.0
1001
DBPROPERTIES
1002
{
1000
PbHidd
1002
}
  0
LINE
  5
101
330
1F
100
AcDbEntity
  8
HIDDEN
100
AcDbLine
 10
268.1259460449219
 20
-177.0
 30
0.0
 11
268.1259155273438
 21
-177.0
 31
0.0
1001
DBPROPERTIES
1002
{
1000
PbHidd
1002
}
  0
LINE
  5
102
330
1F
100
AcDbEntity
  8
HIDDEN
100
AcDbLine
 10
268.1259155273438
 20
-177.0
 30
0.0
 11
268.1258850097656
 21
-177.0
 31
0.0
1001
DBPROPERTIES
1002
{
1000
PbHidd
1002
}
  0
LINE
  5
103
330
1F
100
AcDbEntity
  8
HIDDEN
100
AcDbLine
 10
268.1258850097656
 20
-177.0
 30
0.0
 11
268.1258239746094
 21
-177.0
 31
0.0
1001
DBPROPERTIES
1002
{
1000
PbHidd
1002
}
  0
LINE
  5
104
330
1F
100
AcDbEntity
  8
HIDDEN
100
AcDbLine
 10
268.1258239746094
 20
-177.0
 30
0.0
 11
268.1257934570312
 21
-177.0
 31
0.0
1001
DBPROPERTIES
1002
{
1000
PbHidd
1002
}
  0
LINE
  5
105
330
1F
100
AcDbEntity
  8
HIDDEN
100
AcDbLine
 10
268.1257934570312
 20
-177.0
 30
0.0
 11
268.125732421875
 21
-177.0
 31
0.0
1001
DBPROPERTIES
1002
{
1000
PbHidd
1002
}
  0
LINE
  5
106
330
1F
100
AcDbEntity
  8
HIDDEN
100
AcDbLine
 10
268.125732421875
 20
-177.0
 30
0.0
 11
268.1256713867188
 21
-177.0
 31
0.0
1001
DBPROPERTIES
1002
{
1000
PbHidd
1002
}
  0
LINE
  5
107
330
1F
100
AcDbEntity
  8
HIDDEN
100
AcDbLine
 10
268.1256713867188
 20
-177.0
 30
0.0
 11
268.1256103515625
 21
-177.0
 31
0.0
1001
DBPROPERTIES
1002
{
1000
PbHidd
1002
}
  0
LINE
  5
108
330
1F
100
AcDbEntity
  8
HIDDEN
100
AcDbLine
 10
268.1256103515625
 20
-177.0
 30
0.0
 11
268.1255493164062
 21
-177.0
 31
0.0
1001
DBPROPERTIES
1002
{
1000
PbHidd
1002
}
  0
LINE
  5
109
330
1F
100
AcDbEntity
  8
HIDDEN
100
AcDbLine
 10
268.1255493164062
 20
-177.0
 30
0.0
 11
268.12548828125
 21
-177.0
 31
0.0
1001
DBPROPERTIES
1002
{
1000
PbHidd
1002
}
  0
LINE
  5
10A
330
1F
100
AcDbEntity
  8
HIDDEN
100
AcDbLine
 10
268.12548828125
 20
-177.0
 30
0.0
 11
268.1253967285156
 21
-177.0
 31
0.0
1001
DBPROPERTIES
1002
{
1000
PbHidd
1002
}
  0
LINE
  5
10B
330
1F
100
AcDbEntity
  8
HIDDEN
100
AcDbLine
 10
268.1253967285156
 20
-177.0
 30
0.0
 11
268.1253356933594
 21
-177.0
 31
0.0
1001
DBPROPERTIES
1002
{
1000
PbHidd
1002
}
  0
LINE
  5
10C
330
1F
100
AcDbEntity
  8
HIDDEN
100
AcDbLine
 10
268.1253356933594
 20
-177.0
 30
0.0
 11
268.125244140625
 21
-177.0
 31
0.0
1001
DBPROPERTIES
1002
{
1000
PbHidd
1002
}
  0
LINE
  5
10D
330
1F
100
AcDbEntity
  8
HIDDEN
100
AcDbLine
 10
268.125244140625
 20
-177.0
 30
0.0
 11
268.1251525878906
 21
-177.0
 31
0.0
1001
DBPROPERTIES
1002
{
1000
PbHidd
1002
}
  0
LINE
  5
10E
330
1F
100
AcDbEntity
  8
HIDDEN
100
AcDbLine
 10
268.1251525878906
 20
-177.0
 30
0.0
 11
268.1250915527344
 21
-177.0
 31
0.0
1001
DBPROPERTIES
1002
{
1000
PbHidd
1002
}
  0
LINE
  5
10F
330
1F
100
AcDbEntity
  8
HIDDEN
100
AcDbLine
 10
268.1250915527344
 20
-177.0
 30
0.0
 11
268.125
 21
-177.0
 31
0.0
1001
DBPROPERTIES
1002
{
1000
PbHidd
1002
}
  0
LINE
  5
110
330
1F
100
AcDbEntity
  8
HIDDEN
100
AcDbLine
 10
268.125
 20
-177.0
 30
0.0
 11
268.1249084472656
 21
-177.0
 31
0.0
1001
DBPROPERTIES
1002
{
1000
PbHidd
1002
}
  0
LINE
  5
111
330
1F
100
AcDbEntity
  8
HIDDEN
100
AcDbLine
 10
268.1249084472656
 20
-177.0
 30
0.0
 11
268.1248474121094
 21
-177.0
 31
0.0
1001
DBPROPERTIES
1002
{
1000
PbHidd
1002
}
  0
LINE
  5
112
330
1F
100
AcDbEntity
  8
HIDDEN
100
AcDbLine
 10
268.1248474121094
 20
-177.0
 30
0.0
 11
268.124755859375
 21
-177.0
 31
0.0
1001
DBPROPERTIES
1002
{
1000
PbHidd
1002
}
  0
LINE
  5
113
330
1F
100
AcDbEntity
  8
HIDDEN
100
AcDbLine
 10
268.124755859375
 20
-177.0
 30
0.0
 11
268.1246643066406
 21
-177.0
 31
0.0
1001
DBPROPERTIES
1002
{
1000
PbHidd
1002
}
  0
LINE
  5
114
330
1F
100
AcDbEntity
  8
HIDDEN
100
AcDbLine
 10
268.1246643066406
 20
-177.0
 30
0.0
 11
268.1246032714844
 21
-177.0
 31
0.0
1001
DBPROPERTIES
1002
{
1000
PbHidd
1002
}
  0
LINE
  5
115
330
1F
100
AcDbEntity
  8
HIDDEN
100
AcDbLine
 10
268.1246032714844
 20
-177.0
 30
0.0
 11
268.12451171875
 21
-177.0
 31
0.0
1001
DBPROPERTIES
1002
{
1000
PbHidd
1002
}
  0
LINE
  5
116
330
1F
100
AcDbEntity
  8
HIDDEN
100
AcDbLine
 10
268.12451171875
 20
-177.0
 30
0.0
 11
268.1244506835938
 21
-177.0
 31
0.0
1001
DBPROPERTIES
1002
{
1000
PbHidd
1002
}
  0
LINE
  5
117
330
1F
100
AcDbEntity
  8
HIDDEN
100
AcDbLine
 10
268.1244506835938
 20
-177.0
 30
0.0
 11
268.1243896484375
 21
-177.0
 31
0.0
1001
DBPROPERTIES
1002
{
1000
PbHidd
1002
}
  0
LINE
  5
118
330
1F
100
AcDbEntity
  8
HIDDEN
100
AcDbLine
 10
268.1243896484375
 20
-177.0
 30
0.0
 11
268.1243286132812
 21
-177.0
 31
0.0
1001
DBPROPERTIES
1002
{
1000
PbHidd
1002
}
  0
LINE
  5
119
330
1F
100
AcDbEntity
  8
HIDDEN
100
AcDbLine
 10
268.1243286132812
 20
-177.0
 30
0.0
 11
268.124267578125
 21
-177.0
 31
0.0
1001
DBPROPERTIES
1002
{
1000
PbHidd
1002
}
  0
LINE
  5
11A
330
1F
100
AcDbEntity
  8
HIDDEN
100
AcDbLine
 10
268.124267578125
 20
-177.0
 30
0.0
 11
268.1242065429688
 21
-177.0
 31
0.0
1001
DBPROPERTIES
1002
{
1000
PbHidd
1002
}
  0
LINE
  5
11B
330
1F
100
AcDbEntity
  8
HIDDEN
100
AcDbLine
 10
268.1242065429688
 20
-177.0
 30
0.0
 11
268.1241760253906
 21
-177.0
 31
0.0
1001
DBPROPERTIES
1002
{
1000
PbHidd
1002
}
  0
LINE
  5
11C
330
1F
100
AcDbEntity
  8
HIDDEN
100
AcDbLine
 10
268.1241760253906
 20
-177.0
 30
0.0
 11
268.1241149902344
 21
-177.0
 31
0.0
1001
DBPROPERTIES
1002
{
1000
PbHidd
1002
}
  0
LINE
  5
11D
330
1F
100
AcDbEntity
  8
HIDDEN
100
AcDbLine
 10
268.1241149902344
 20
-177.0
 30
0.0
 11
268.1240844726562
 21
-177.0
 31
0.0
1001
DBPROPERTIES
1002
{
1000
PbHidd
1002
}
  0
LINE
  5
11E
330
1F
100
AcDbEntity
  8
HIDDEN
100
AcDbLine
 10
268.1240844726562
 20
-177.0
 30
0.0
 11
268.1240539550781
 21
-177.0
 31
0.0
1001
DBPROPERTIES
1002
{
1000
PbHidd
1002
}
  0
LINE
  5
11F
330
1F
100
AcDbEntity
  8
HIDDEN
100
AcDbLine
 10
268.1240539550781
 20
-177.0
 30
0.0
 11
268.1240234375
 21
-177.0
 31
0.0
1001
DBPROPERTIES
1002
{
1000
PbHidd
1002
}
  0
LINE
  5
120
330
1F
100
AcDbEntity
  8
HIDDEN
100
AcDbLine
 10
268.1240234375
 20
-177.0
 30
0.0
 11
268.1240234375
 21
-177.0
 31
0.0
1001
DBPROPERTIES
1002
{
1000
PbHidd
1002
}
  0
LINE
  5
121
330
1F
100
AcDbEntity
  8
HIDDEN
100
AcDbLine
 10
268.1240234375
 20
-177.0
 30
0.0
 11
268.1239929199219
 21
-177.0
 31
0.0
1001
DBPROPERTIES
1002
{
1000
PbHidd
1002
}
  0
LINE
  5
122
330
1F
100
AcDbEntity
  8
HIDDEN
100
AcDbLine
 10
268.1239929199219
 20
-177.0
 30
0.0
 11
268.1239929199219
 21
-177.0
 31
0.0
1001
DBPROPERTIES
1002
{
1000
PbHidd
1002
}
  0
LINE
  5
123
330
1F
100
AcDbEntity
  8
HIDDEN
100
AcDbLine
 10
268.1239929199219
 20
-177.0
 30
0.0
 11
268.1239929199219
 21
-177.0
 31
0.0
1001
DBPROPERTIES
1002
{
1000
PbHidd
1002
}
  0
LINE
  5
124
330
1F
100
AcDbEntity
  8
HIDDEN
100
AcDbLine
 10
268.1239929199219
 20
-177.0
 30
0.0
 11
268.1240234375
 21
-177.0
 31
0.0
1001
DBPROPERTIES
1002
{
1000
PbHidd
1002
}
  0
LINE
  5
125
330
1F
100
AcDbEntity
  8
HIDDEN
100
AcDbLine
 10
268.1240234375
 20
-177.0
 30
0.0
 11
268.1240234375
 21
-177.0
 31
0.0
1001
DBPROPERTIES
1002
{
1000
PbHidd
1002
}
  0
LINE
  5
126
330
1F
100
AcDbEntity
  8
HIDDEN
100
AcDbLine
 10
268.1240234375
 20
-177.0
 30
0.0
 11
268.1240539550781
 21
-177.0
 31
0.0
1001
DBPROPERTIES
1002
{
1000
PbHidd
1002
}
  0
LINE
  5
127
330
1F
100
AcDbEntity
  8
HIDDEN
100
AcDbLine
 10
268.1240539550781
 20
-177.0
 30
0.0
 11
268.1240844726562
 21
-177.0
 31
0.0
1001
DBPROPERTIES
1002
{
1000
PbHidd
1002
}
  0
LINE
  5
128
330
1F
100
AcDbEntity
  8
HIDDEN
100
AcDbLine
 10
268.1240844726562
 20
-177.0
 30
0.0
 11
268.1241149902344
 21
-177.0
 31
0.0
1001
DBPROPERTIES
1002
{
1000
PbHidd
1002
}
  0
LINE
  5
129
330
1F
100
AcDbEntity
  8
HIDDEN
100
AcDbLine
 10
268.1241149902344
 20
-177.0
 30
0.0
 11
268.1241760253906
 21
-177.0
 31
0.0
1001
DBPROPERTIES
1002
{
1000
PbHidd
1002
}
  0
LINE
  5
12A
330
1F
100
AcDbEntity
  8
HIDDEN
100
AcDbLine
 10
268.1241760253906
 20
-177.0
 30
0.0
 11
268.1242065429688
 21
-177.0
 31
0.0
1001
DBPROPERTIES
1002
{
1000
PbHidd
1002
}
  0
LINE
  5
12B
330
1F
100
AcDbEntity
  8
HIDDEN
100
AcDbLine
 10
268.1242065429688
 20
-177.0
 30
0.0
 11
268.124267578125
 21
-177.0
 31
0.0
1001
DBPROPERTIES
1002
{
1000
PbHidd
1002
}
  0
LINE
  5
12C
330
1F
100
AcDbEntity
  8
HIDDEN
100
AcDbLine
 10
268.124267578125
 20
-177.0
 30
0.0
 11
268.1243286132812
 21
-177.0
 31
0.0
1001
DBPROPERTIES
1002
{
1000
PbHidd
1002
}
  0
LINE
  5
12D
330
1F
100
AcDbEntity
  8
HIDDEN
100
AcDbLine
 10
268.1243286132812
 20
-177.0
 30
0.0
 11
268.1243896484375
 21
-177.0
 31
0.0
1001
DBPROPERTIES
1002
{
1000
PbHidd
1002
}
  0
LINE
  5
12E
330
1F
100
AcDbEntity
  8
HIDDEN
100
AcDbLine
 10
268.1243896484375
 20
-177.0
 30
0.0
 11
268.1244506835938
 21
-177.0
 31
0.0
1001
DBPROPERTIES
1002
{
1000
PbHidd
1002
}
  0
LINE
  5
12F
330
1F
100
AcDbEntity
  8
HIDDEN
100
AcDbLine
 10
268.1244506835938
 20
-177.0
 30
0.0
 11
268.12451171875
 21
-177.0
 31
0.0
1001
DBPROPERTIES
1002
{
1000
PbHidd
1002
}
  0
LINE
  5
130
330
1F
100
AcDbEntity
  8
HIDDEN
100
AcDbLine
 10
268.12451171875
 20
-177.0
 30
0.0
 11
268.1246032714844
 21
-177.0
 31
0.0
1001
DBPROPERTIES
1002
{
1000
PbHidd
1002
}
  0
LINE
  5
131
330
1F
100
AcDbEntity
  8
HIDDEN
100
AcDbLine
 10
268.1246032714844
 20
-177.0
 30
0.0
 11
268.1246643066406
 21
-177.0
 31
0.0
1001
DBPROPERTIES
1002
{
1000
PbHidd
1002
}
  0
LINE
  5
132
330
1F
100
AcDbEntity
  8
HIDDEN
100
AcDbLine
 10
268.1246643066406
 20
-177.0
 30
0.0
 11
268.124755859375
 21
-177.0
 31
0.0
1001
DBPROPERTIES
1002
{
1000
PbHidd
1002
}
  0
LINE
  5
133
330
1F
100
AcDbEntity
  8
HIDDEN
100
AcDbLine
 10
268.124755859375
 20
-177.0
 30
0.0
 11
268.1248474121094
 21
-177.0
 31
0.0
1001
DBPROPERTIES
1002
{
1000
PbHidd
1002
}
  0
LINE
  5
134
330
1F
100
AcDbEntity
  8
HIDDEN
100
AcDbLine
 10
268.1248474121094
 20
-177.0
 30
0.0
 11
268.1249084472656
 21
-177.0
 31
0.0
1001
DBPROPERTIES
1002
{
1000
PbHidd
1002
}
  0
LINE
  5
135
330
1F
100
AcDbEntity
  8
HIDDEN
100
AcDbLine
 10
268.1249084472656
 20
-177.0
 30
0.0
 11
268.125
 21
-177.0
 31
0.0
1001
DBPROPERTIES
1002
{
1000
PbHidd
1002
}
  0
ELLIPSE
  5
136
330
1F
100
AcDbEntity
  8
HIDDEN
100
AcDbEllipse
 10
343.4992377544917
 20
9.593447011256172
 30
0.0
 11
34.83092637082652
 21
-49.01168013304251
 31
0.0
210
0.0
220
0.0
230
1.0
 40
0.1222074256418715
 41
-1.792414492401244
 42
-1.461166137295214
1001
DBPROPERTIES
1002
{
1000
PbHidd
1002
}
  0
ELLIPSE
  5
137
330
1F
100
AcDbEntity
  8
HIDDEN
100
AcDbEllipse
 10
341.8812037657418
 20
8.443565542702974
 30
0.0
 11
-35.13187022643319
 21
49.43514759503204
 31
0.0
210
0.0
220
0.0
230
1.0
 40
0.1222074256418712
 41
-1.828419962499517
 42
-1.060701942564501
1001
DBPROPERTIES
1002
{
1000
PbHidd
1002
}
  0
LINE
  5
138
330
1F
100
AcDbEntity
  8
HIDDEN
100
AcDbLine
 10
330.0
 20
16.21413651988022
 30
0.0
 11
330.0
 21
36.32757380093659
 31
0.0
1001
DBPROPERTIES
1002
{
1000
PbHidd
1002
}
  0
ELLIPSE
  5
139
330
1F
100
AcDbEntity
  8
HIDDEN
100
AcDbEllipse
 10
341.8812037657418
 20
8.443565542702974
 30
0.0
 11
-35.13187022643317
 21
49.43514759503203
 31
0.0
210
0.0
220
0.0
230
1.0
 40
0.1222074256418715
 41
1.655157428106986
 42
2.482086517054689
1001
DBPROPERTIES
1002
{
1000
PbHidd
1002
}
  0
LINE
  5
13A
330
1F
100
AcDbEntity
  8
HIDDEN
100
AcDbLine
 10
330.0
 20
-9.696229715046039
 30
0.0
 11
330.0
 21
0.0
 31
0.0
1001
DBPROPERTIES
1002
{
1000
PbHidd
1002
}
  0
ELLIPSE
  5
13B
330
1F
100
AcDbEntity
  8
HIDDEN
100
AcDbEllipse
 10
343.4992377544917
 20
7.934652869279951
 30
0.0
 11
30.46861210615282
 21
-51.83629903492732
 31
0.0
210
0.0
220
0.0
230
1.0
 40
0.3454915028125263
 41
-1.431321142846336
 42
-0.2817452588234504
1001
DBPROPERTIES
1002
{
1000
PbHidd
1002
}
  0
LINE
  5
13C
330
1F
100
AcDbEntity
  8
HIDDEN
100
AcDbLine
 10
367.7872314453125
 20
-44.78457641601562
 30
0.0
 11
367.4837036132812
 21
-45.00442123413086
 31
0.0
1001
DBPROPERTIES
1002
{
1000
PbHidd
1002
}
  0
LINE
  5
13D
330
1F
100
AcDbEntity
  8
HIDDEN
100
AcDbLine
 10
367.4837036132812
 20
-45.00442123413086
 30
0.0
 11
367.1786193847656
 21
-45.22489547729492
 31
0.0
1001
DBPROPERTIES
1002
{
1000
PbHidd
1002
}
  0
LINE
  5
13E
330
1F
100
AcDbEntity
  8
HIDDEN
100
AcDbLine
 10
367.1786193847656
 20
-45.22489547729492
 30
0.0
 11
366.8720703125
 21
-45.44591903686523
 31
0.0
1001
DBPROPERTIES
1002
{
1000
PbHidd
1002
}
  0
LINE
  5
13F
330
1F
100
AcDbEntity
  8
HIDDEN
100
AcDbLine
 10
366.8720703125
 20
-45.44591903686523
 30
0.0
 11
366.5640563964844
 21
-45.66740417480469
 31
0.0
1001
DBPROPERTIES
1002
{
1000
PbHidd
1002
}
  0
LINE
  5
140
330
1F
100
AcDbEntity
  8
HIDDEN
100
AcDbLine
 10
366.5640563964844
 20
-45.66740417480469
 30
0.0
 11
366.2546997070312
 21
-45.88927841186523
 31
0.0
1001
DBPROPERTIES
1002
{
1000
PbHidd
1002
}
  0
LINE
  5
141
330
1F
100
AcDbEntity
  8
HIDDEN
100
AcDbLine
 10
366.2546997070312
 20
-45.88927841186523
 30
0.0
 11
365.9440612792969
 21
-46.11145401000977
 31
0.0
1001
DBPROPERTIES
1002
{
1000
PbHidd
1002
}
  0
ELLIPSE
  5
142
330
1F
100
AcDbEntity
  8
HIDDEN
100
AcDbEllipse
 10
341.8812037657418
 20
6.983596352984796
 30
0.0
 11
-30.73186498391405
 21
52.2841715814645
 31
0.0
210
0.0
220
0.0
230
1.0
 40
0.3454915028125263
 41
1.762387896330298
 42
2.843179866609594
1001
DBPROPERTIES
1002
{
1000
PbHidd
1002
}
  0
LINE
  5
143
330
1F
100
AcDbEntity
  8
HIDDEN
100
AcDbLine
 10
330.0
 20
-33.93002974475928
 30
0.0
 11
330.0
 21
-13.39576012530765
 31
0.0
1001
DBPROPERTIES
1002
{
1000
PbHidd
1002
}
  0
ELLIPSE
  5
144
330
1F
100
AcDbEntity
  8
HIDDEN
100
AcDbEllipse
 10
343.4992377544917
 20
4.903885162146886
 30
0.0
 11
20.52999378628421
 21
-56.51422454965426
 31
0.0
210
0.0
220
0.0
230
1.0
 40
0.5090369604551273
 41
-1.011739024754359
 42
0.1378368592685257
1001
DBPROPERTIES
1002
{
1000
PbHidd
1002
}
  0
LINE
  5
145
330
1F
100
AcDbEntity
  8
HIDDEN
100
AcDbLine
 10
367.7872314453125
 20
-49.63842010498047
 30
0.0
 11
367.4837036132812
 21
-49.8686637878418
 31
0.0
1001
DBPROPERTIES
1002
{
1000
PbHidd
1002
}
  0
LINE
  5
146
330
1F
100
AcDbEntity
  8
HIDDEN
100
AcDbLine
 10
367.4837036132812
 20
-49.8686637878418
 30
0.0
 11
367.1786193847656
 21
-50.09729385375977
 31
0.0
1001
DBPROPERTIES
1002
{
1000
PbHidd
1002
}
  0
LINE
  5
147
330
1F
100
AcDbEntity
  8
HIDDEN
100
AcDbLine
 10
367.1786193847656
 20
-50.09729385375977
 30
0.0
 11
366.8720703125
 21
-50.32423782348633
 31
0.0
1001
DBPROPERTIES
1002
{
1000
PbHidd
1002
}
  0
LINE
  5
148
330
1F
100
AcDbEntity
  8
HIDDEN
100
AcDbLine
 10
366.8720703125
 20
-50.32423782348633
 30
0.0
 11
366.5640563964844
 21
-50.5494384765625
 31
0.0
1001
DBPROPERTIES
1002
{
1000
PbHidd
1002
}
  0
LINE
  5
149
330
1F
100
AcDbEntity
  8
HIDDEN
100
AcDbLine
 10
366.5640563964844
 20
-50.5494384765625
 30
0.0
 11
366.2546997070312
 21
-50.7728385925293
 31
0.0
1001
DBPROPERTIES
1002
{
1000
PbHidd
1002
}
  0
LINE
  5
14A
330
1F
100
AcDbEntity
  8
HIDDEN
100
AcDbLine
 10
366.2546997070312
 20
-50.7728385925293
 30
0.0
 11
365.9440612792969
 21
-50.99436950683594
 31
0.0
1001
DBPROPERTIES
1002
{
1000
PbHidd
1002
}
  0
ELLIPSE
  5
14B
330
1F
100
AcDbEntity
  8
HIDDEN
100
AcDbEllipse
 10
341.8812037657418
 20
4.316099909854412
 30
0.0
 11
-20.70737567443289
 21
57.00251499738802
 31
0.0
210
0.0
220
0.0
230
1.0
 40
0.5090369604551273
 41
2.181970014422275
 42
3.262761984701569
1001
DBPROPERTIES
1002
{
1000
PbHidd
1002
}
  0
LINE
  5
14C
330
1F
100
AcDbEntity
  8
HIDDEN
100
AcDbLine
 10
330.0
 20
-52.29701938696032
 30
0.0
 11
330.0
 21
-37.02626921893165
 31
0.0
1001
DBPROPERTIES
1002
{
1000
PbHidd
1002
}
  0
ELLIPSE
  5
14D
330
1F
100
AcDbEntity
  8
HIDDEN
100
AcDbEllipse
 10
343.4992377544917
 20
1.025191160080522
 30
0.0
 11
4.55324755783933
 21
-59.95503446742935
 31
0.0
210
0.0
220
0.0
230
1.0
 40
0.5845653031794291
 41
-0.5211068467321176
 42
0.6284690372907671
1001
DBPROPERTIES
1002
{
1000
PbHidd
1002
}
  0
LINE
  5
14E
330
1F
100
AcDbEntity
  8
HIDDEN
100
AcDbLine
 10
367.7872314453125
 20
-45.90933227539062
 30
0.0
 11
367.483642578125
 21
-46.1102180480957
 31
0.0
1001
DBPROPERTIES
1002
{
1000
PbHidd
1002
}
  0
LINE
  5
14F
330
1F
100
AcDbEntity
  8
HIDDEN
100
AcDbLine
 10
367.483642578125
 20
-46.1102180480957
 30
0.0
 11
367.178466796875
 21
-46.30751037597656
 31
0.0
1001
DBPROPERTIES
1002
{
1000
PbHidd
1002
}
  0
LINE
  5
150
330
1F
100
AcDbEntity
  8
HIDDEN
100
AcDbLine
 10
367.178466796875
 20
-46.30751037597656
 30
0.0
 11
366.8718566894531
 21
-46.50115966796875
 31
0.0
1001
DBPROPERTIES
1002
{
1000
PbHidd
1002
}
  0
LINE
  5
151
330
1F
100
AcDbEntity
  8
HIDDEN
100
AcDbLine
 10
366.8718566894531
 20
-46.50115966796875
 30
0.0
 11
366.5638732910156
 21
-46.69113159179688
 31
0.0
1001
DBPROPERTIES
1002
{
1000
PbHidd
1002
}
  0
LINE
  5
152
330
1F
100
AcDbEntity
  8
HIDDEN
100
AcDbLine
 10
366.5638732910156
 20
-46.69113159179688
 30
0.0
 11
366.2545776367188
 21
-46.87739181518555
 31
0.0
1001
DBPROPERTIES
1002
{
1000
PbHidd
1002
}
  0
LINE
  5
153
330
1F
100
AcDbEntity
  8
HIDDEN
100
AcDbLine
 10
366.2545776367188
 20
-46.87739181518555
 30
0.0
 11
365.9440612792969
 21
-47.05989837646484
 31
0.0
1001
DBPROPERTIES
1002
{
1000
PbHidd
1002
}
  0
ELLIPSE
  5
154
330
1F
100
AcDbEntity
  8
HIDDEN
100
AcDbEllipse
 10
341.8812037657418
 20
0.9023105817734777
 30
0.0
 11
-4.592588224837367
 21
60.47305397238203
 31
0.0
210
0.0
220
0.0
230
1.0
 40
0.584565303179429
 41
2.672602192444515
 42
3.753394162723811
1001
DBPROPERTIES
1002
{
1000
PbHidd
1002
}
  0
LINE
  5
155
330
1F
100
AcDbEntity
  8
HIDDEN
100
AcDbLine
 10
330.0
 20
-61.62137927364998
 30
0.0
 11
330.0
 21
-54.25459999150647
 31
0.0
1001
DBPROPERTIES
1002
{
1000
PbHidd
1002
}
  0
ELLIPSE
  5
156
330
1F
100
AcDbEntity
  8
HIDDEN
100
AcDbEllipse
 10
343.4992377544917
 20
-3.030767707133066
 30
0.0
 11
-13.17161913684539
 21
-58.66725381869771
 31
0.0
210
0.0
220
0.0
230
1.0
 40
0.5590169943749472
 41
-0.0100098810379164
 42
1.13956600298497
1001
DBPROPERTIES
1002
{
1000
PbHidd
1002
}
  0
LINE
  5
157
330
1F
100
AcDbEntity
  8
HIDDEN
100
AcDbLine
 10
367.7872314453125
 20
-34.24209976196289
 30
0.0
 11
367.4837036132812
 21
-34.37879943847656
 31
0.0
1001
DBPROPERTIES
1002
{
1000
PbHidd
1002
}
  0
LINE
  5
158
330
1F
100
AcDbEntity
  8
HIDDEN
100
AcDbLine
 10
367.4837036132812
 20
-34.37879943847656
 30
0.0
 11
367.1786193847656
 21
-34.51055908203125
 31
0.0
1001
DBPROPERTIES
1002
{
1000
PbHidd
1002
}
  0
LINE
  5
159
330
1F
100
AcDbEntity
  8
HIDDEN
100
AcDbLine
 10
367.1786193847656
 20
-34.51055908203125
 30
0.0
 11
366.8720703125
 21
-34.63739013671875
 31
0.0
1001
DBPROPERTIES
1002
{
1000
PbHidd
1002
}
  0
LINE
  5
15A
330
1F
100
AcDbEntity
  8
HIDDEN
100
AcDbLine
 10
366.8720703125
 20
-34.63739013671875
 30
0.0
 11
366.56396484375
 21
-34.75922393798828
 31
0.0
1001
DBPROPERTIES
1002
{
1000
PbHidd
1002
}
  0
LINE
  5
15B
330
1F
100
AcDbEntity
  8
HIDDEN
100
AcDbLine
 10
366.56396484375
 20
-34.75922393798828
 30
0.0
 11
366.2546081542969
 21
-34.8762092590332
 31
0.0
1001
DBPROPERTIES
1002
{
1000
PbHidd
1002
}
  0
LINE
  5
15C
330
1F
100
AcDbEntity
  8
HIDDEN
100
AcDbLine
 10
366.2546081542969
 20
-34.8762092590332
 30
0.0
 11
365.9440612792969
 21
-34.98834228515625
 31
0.0
1001
DBPROPERTIES
1002
{
1000
PbHidd
1002
}
  0
ELLIPSE
  5
15D
330
1F
100
AcDbEntity
  8
HIDDEN
100
AcDbEllipse
 10
341.8812037657418
 20
-2.667496443130385
 30
0.0
 11
13.28542368529245
 21
59.17414672685879
 31
0.0
210
0.0
220
0.0
230
1.0
 40
0.5590169943749475
 41
-3.099486149040869
 42
-2.018694178761572
1001
DBPROPERTIES
1002
{
1000
PbHidd
1002
}
  0
LINE
  5
15E
330
1F
100
AcDbEntity
  8
HIDDEN
100
AcDbLine
 10
330.0
 20
-60.29084287126941
 30
0.0
 11
330.0
 21
-62.39999999793662
 31
0.0
1001
DBPROPERTIES
1002
{
1000
PbHidd
1002
}
  0
LINE
  5
15F
330
1F
100
AcDbEntity
  8
HIDDEN
100
AcDbLine
 10
330.0
 20
-62.10181753798241
 30
0.0
 11
330.0
 21
-62.40000000000001
 31
0.0
1001
DBPROPERTIES
1002
{
1000
PbHidd
1002
}
  0
ELLIPSE
  5
160
330
1F
100
AcDbEntity
  8
HIDDEN
100
AcDbEllipse
 10
343.4992377544917
 20
-6.562679304123109
 30
0.0
 11
-26.28916590909262
 21
-54.07603884455492
 31
0.0
210
0.0
220
0.0
230
1.0
 40
0.436809568733076
 41
0.4468936711401874
 42
1.596469555163073
1001
DBPROPERTIES
1002
{
1000
PbHidd
1002
}
  0
LINE
  5
161
330
1F
100
AcDbEntity
  8
HIDDEN
100
AcDbLine
 10
367.7872314453125
 20
-16.65410041809082
 30
0.0
 11
367.4837036132812
 21
-16.70302581787109
 31
0.0
1001
DBPROPERTIES
1002
{
1000
PbHidd
1002
}
  0
LINE
  5
162
330
1F
100
AcDbEntity
  8
HIDDEN
100
AcDbLine
 10
367.4837036132812
 20
-16.70302581787109
 30
0.0
 11
367.1786193847656
 21
-16.74651908874512
 31
0.0
1001
DBPROPERTIES
1002
{
1000
PbHidd
1002
}
  0
LINE
  5
163
330
1F
100
AcDbEntity
  8
HIDDEN
100
AcDbLine
 10
367.1786193847656
 20
-16.74651908874512
 30
0.0
 11
366.8720703125
 21
-16.78462028503418
 31
0.0
1001
DBPROPERTIES
1002
{
1000
PbHidd
1002
}
  0
LINE
  5
164
330
1F
100
AcDbEntity
  8
HIDDEN
100
AcDbLine
 10
366.8720703125
 20
-16.78462028503418
 30
0.0
 11
366.5640563964844
 21
-16.8173713684082
 31
0.0
1001
DBPROPERTIES
1002
{
1000
PbHidd
1002
}
  0
LINE
  5
165
330
1F
100
AcDbEntity
  8
HIDDEN
100
AcDbLine
 10
366.5640563964844
 20
-16.8173713684082
 30
0.0
 11
366.2546997070312
 21
-16.84481239318848
 31
0.0
1001
DBPROPERTIES
1002
{
1000
PbHidd
1002
}
  0
LINE
  5
166
330
1F
100
AcDbEntity
  8
HIDDEN
100
AcDbLine
 10
366.2546997070312
 20
-16.84481239318848
 30
0.0
 11
365.9440612792969
 21
-16.86698341369629
 31
0.0
1001
DBPROPERTIES
1002
{
1000
PbHidd
1002
}
  0
ELLIPSE
  5
167
330
1F
100
AcDbEntity
  8
HIDDEN
100
AcDbEllipse
 10
341.8812037657418
 20
-5.776069099572593
 30
0.0
 11
26.51630781353511
 21
54.54326304217048
 31
0.0
210
0.0
220
0.0
230
1.0
 40
0.436809568733076
 41
-2.642582596862765
 42
-1.561790626583468
1001
DBPROPERTIES
1002
{
1000
PbHidd
1002
}
  0
LINE
  5
168
330
1F
100
AcDbEntity
  8
HIDDEN
100
AcDbLine
 10
330.0
 20
-48.53547201133391
 30
0.0
 11
330.0
 21
-59.21106665484041
 31
0.0
1001
DBPROPERTIES
1002
{
1000
PbHidd
1002
}
  0
ELLIPSE
  5
169
330
1F
100
AcDbEntity
  8
HIDDEN
100
AcDbEllipse
 10
343.4992377544917
 20
-8.959844029360475
 30
0.0
 11
-33.25090408859049
 21
-50.09706177616575
 31
0.0
210
0.0
220
0.0
230
1.0
 40
0.2390738003669028
 41
0.8331513844183047
 42
1.982727268441191
1001
DBPROPERTIES
1002
{
1000
PbHidd
1002
}
  0
LINE
  5
16A
330
1F
100
AcDbEntity
  8
HIDDEN
100
AcDbLine
 10
367.7872314453125
 20
3.813545703887939
 30
0.0
 11
367.4837036132812
 21
3.86085319519043
 31
0.0
1001
DBPROPERTIES
1002
{
1000
PbHidd
1002
}
  0
LINE
  5
16B
330
1F
100
AcDbEntity
  8
HIDDEN
100
AcDbLine
 10
367.4837036132812
 20
3.86085319519043
 30
0.0
 11
367.1786193847656
 21
3.913148164749146
 31
0.0
1001
DBPROPERTIES
1002
{
1000
PbHidd
1002
}
  0
LINE
  5
16C
330
1F
100
AcDbEntity
  8
HIDDEN
100
AcDbLine
 10
367.1786193847656
 20
3.913148164749146
 30
0.0
 11
366.8720703125
 21
3.970361709594727
 31
0.0
1001
DBPROPERTIES
1002
{
1000
PbHidd
1002
}
  0
LINE
  5
16D
330
1F
100
AcDbEntity
  8
HIDDEN
100
AcDbLine
 10
366.8720703125
 20
3.970361709594727
 30
0.0
 11
366.56396484375
 21
4.032379627227783
 31
0.0
1001
DBPROPERTIES
1002
{
1000
PbHidd
1002
}
  0
LINE
  5
16E
330
1F
100
AcDbEntity
  8
HIDDEN
100
AcDbLine
 10
366.56396484375
 20
4.032379627227783
 30
0.0
 11
366.2546997070312
 21
4.099271297454834
 31
0.0
1001
DBPROPERTIES
1002
{
1000
PbHidd
1002
}
  0
LINE
  5
16F
330
1F
100
AcDbEntity
  8
HIDDEN
100
AcDbLine
 10
366.2546997070312
 20
4.099271297454834
 30
0.0
 11
365.9440612792969
 21
4.170830249786377
 31
0.0
1001
DBPROPERTIES
1002
{
1000
PbHidd
1002
}
  0
ELLIPSE
  5
170
330
1F
100
AcDbEntity
  8
HIDDEN
100
AcDbEllipse
 10
341.8812037657418
 20
-7.885906934758276
 30
0.0
 11
33.53819634066246
 21
50.52990708050747
 31
0.0
210
0.0
220
0.0
230
1.0
 40
0.2390738003669028
 41
-2.256324883584647
 42
-1.175532913305351
1001
DBPROPERTIES
1002
{
1000
PbHidd
1002
}
  0
LINE
  5
171
330
1F
100
AcDbEntity
  8
HIDDEN
100
AcDbLine
 10
330.0
 20
-28.38787710971799
 30
0.0
 11
330.0
 21
-46.08218443142305
 31
0.0
1001
DBPROPERTIES
1002
{
1000
PbHidd
1002
}
  0
LINE
  5
172
330
1F
100
AcDbEntity
  8
HIDDEN
100
AcDbLine
 10
330.0
 20
-28.38787710971796
 30
0.0
 11
367.7872385575497
 21
23.62179486542465
 31
0.0
1001
DBPROPERTIES
1002
{
1000
PbHidd
1002
}
  0
LINE
  5
173
330
1F
100
AcDbEntity
  8
HIDDEN
100
AcDbLine
 10
367.7872314453125
 20
23.62179565429688
 30
0.0
 11
367.4833679199219
 21
23.7573356628418
 31
0.0
1001
DBPROPERTIES
1002
{
1000
PbHidd
1002
}
  0
LINE
  5
174
330
1F
100
AcDbEntity
  8
HIDDEN
100
AcDbLine
 10
367.4833679199219
 20
23.7573356628418
 30
0.0
 11
367.1781005859375
 21
23.89643669128418
 31
0.0
1001
DBPROPERTIES
1002
{
1000
PbHidd
1002
}
  0
LINE
  5
175
330
1F
100
AcDbEntity
  8
HIDDEN
100
AcDbLine
 10
367.1781005859375
 20
23.89643669128418
 30
0.0
 11
366.8714294433594
 21
24.03912925720215
 31
0.0
1001
DBPROPERTIES
1002
{
1000
PbHidd
1002
}
  0
LINE
  5
176
330
1F
100
AcDbEntity
  8
HIDDEN
100
AcDbLine
 10
366.8714294433594
 20
24.03912925720215
 30
0.0
 11
366.5634765625
 21
24.18526458740234
 31
0.0
1001
DBPROPERTIES
1002
{
1000
PbHidd
1002
}
  0
LINE
  5
177
330
1F
100
AcDbEntity
  8
HIDDEN
100
AcDbLine
 10
366.5634765625
 20
24.18526458740234
 30
0.0
 11
366.2543334960938
 21
24.33474349975586
 31
0.0
1001
DBPROPERTIES
1002
{
1000
PbHidd
1002
}
  0
LINE
  5
178
330
1F
100
AcDbEntity
  8
HIDDEN
100
AcDbLine
 10
366.2543334960938
 20
24.33474349975586
 30
0.0
 11
365.9440612792969
 21
24.48746871948242
 31
0.0
1001
DBPROPERTIES
1002
{
1000
PbHidd
1002
}
  0
LINE
  5
179
330
1F
100
AcDbEntity
  8
HIDDEN
100
AcDbLine
 10
365.9440515341219
 20
24.48746880373963
 30
0.0
 11
330.0
 21
-24.98527387630978
 31
0.0
1001
DBPROPERTIES
1002
{
1000
PbHidd
1002
}
  0
LINE
  5
17A
330
1F
100
AcDbEntity
  8
HIDDEN
100
AcDbLine
 10
330.0
 20
-3.331760360064437
 30
0.0
 11
330.0
 21
-24.98527387630981
 31
0.0
1001
DBPROPERTIES
1002
{
1000
PbHidd
1002
}
  0
ELLIPSE
  5
17B
330
1F
100
AcDbEntity
  8
HIDDEN
100
AcDbEllipse
 10
343.4992377544917
 20
-8.95984402936047
 30
0.0
 11
-33.25090408859048
 21
-50.09706177616575
 31
0.0
210
0.0
220
0.0
230
1.0
 40
0.2390738003669033
 41
-2.674188217770788
 42
-1.524612333747903
1001
DBPROPERTIES
1002
{
1000
PbHidd
1002
}
  0
LINE
  5
17C
330
1F
100
AcDbEntity
  8
HIDDEN
100
AcDbLine
 10
367.7872314453125
 20
39.34562301635742
 30
0.0
 11
367.654296875
 21
39.43295669555664
 31
0.0
1001
DBPROPERTIES
1002
{
1000
PbHidd
1002
}
  0
LINE
  5
17D
330
1F
100
AcDbEntity
  8
HIDDEN
100
AcDbLine
 10
367.654296875
 20
39.43295669555664
 30
0.0
 11
367.5211181640625
 21
39.520751953125
 31
0.0
1001
DBPROPERTIES
1002
{
1000
PbHidd
1002
}
  0
LINE
  5
17E
330
1F
100
AcDbEntity
  8
HIDDEN
100
AcDbLine
 10
367.5211181640625
 20
39.520751953125
 30
0.0
 11
367.3876342773438
 21
39.60888290405273
 31
0.0
1001
DBPROPERTIES
1002
{
1000
PbHidd
1002
}
  0
LINE
  5
17F
330
1F
100
AcDbEntity
  8
HIDDEN
100
AcDbLine
 10
367.3876342773438
 20
39.60888290405273
 30
0.0
 11
367.2538757324219
 21
39.69734191894531
 31
0.0
1001
DBPROPERTIES
1002
{
1000
PbHidd
1002
}
  0
LINE
  5
180
330
1F
100
AcDbEntity
  8
HIDDEN
100
AcDbLine
 10
367.2538757324219
 20
39.69734191894531
 30
0.0
 11
367.1198425292969
 21
39.78612518310547
 31
0.0
1001
DBPROPERTIES
1002
{
1000
PbHidd
1002
}
  0
LINE
  5
181
330
1F
100
AcDbEntity
  8
HIDDEN
100
AcDbLine
 10
367.1198425292969
 20
39.78612518310547
 30
0.0
 11
366.9855041503906
 21
39.87522506713867
 31
0.0
1001
DBPROPERTIES
1002
{
1000
PbHidd
1002
}
  0
LINE
  5
182
330
1F
100
AcDbEntity
  8
HIDDEN
100
AcDbLine
 10
366.9855041503906
 20
39.87522506713867
 30
0.0
 11
366.81298828125
 21
39.98983001708984
 31
0.0
1001
DBPROPERTIES
1002
{
1000
PbHidd
1002
}
  0
LINE
  5
183
330
1F
100
AcDbEntity
  8
HIDDEN
100
AcDbLine
 10
366.81298828125
 20
39.98983001708984
 30
0.0
 11
366.6400146484375
 21
40.10492324829102
 31
0.0
1001
DBPROPERTIES
1002
{
1000
PbHidd
1002
}
  0
LINE
  5
184
330
1F
100
AcDbEntity
  8
HIDDEN
100
AcDbLine
 10
366.6400146484375
 20
40.10492324829102
 30
0.0
 11
366.4666442871094
 21
40.22049713134766
 31
0.0
1001
DBPROPERTIES
1002
{
1000
PbHidd
1002
}
  0
LINE
  5
185
330
1F
100
AcDbEntity
  8
HIDDEN
100
AcDbLine
 10
366.4666442871094
 20
40.22049713134766
 30
0.0
 11
366.2928161621094
 21
40.33652496337891
 31
0.0
1001
DBPROPERTIES
1002
{
1000
PbHidd
1002
}
  0
LINE
  5
186
330
1F
100
AcDbEntity
  8
HIDDEN
100
AcDbLine
 10
366.2928161621094
 20
40.33652496337891
 30
0.0
 11
366.1185913085938
 21
40.45299911499023
 31
0.0
1001
DBPROPERTIES
1002
{
1000
PbHidd
1002
}
  0
LINE
  5
187
330
1F
100
AcDbEntity
  8
HIDDEN
100
AcDbLine
 10
366.1185913085938
 20
40.45299911499023
 30
0.0
 11
365.9440612792969
 21
40.56999969482422
 31
0.0
1001
DBPROPERTIES
1002
{
1000
PbHidd
1002
}
  0
ELLIPSE
  5
188
330
1F
100
AcDbEntity
  8
HIDDEN
100
AcDbEllipse
 10
341.8812037657418
 20
-7.88590693475827
 30
0.0
 11
33.53819634066245
 21
50.52990708050746
 31
0.0
210
0.0
220
0.0
230
1.0
 40
0.2390738003669034
 41
0.4840719639757541
 42
1.56486393425505
1001
DBPROPERTIES
1002
{
1000
PbHidd
1002
}
  0
LINE
  5
189
330
1F
100
AcDbEntity
  8
HIDDEN
100
AcDbLine
 10
330.0
 20
22.30044802393684
 30
0.0
 11
330.0
 21
0.4318175161048106
 31
0.0
1001
DBPROPERTIES
1002
{
1000
PbHidd
1002
}
  0
ELLIPSE
  5
18A
330
1F
100
AcDbEntity
  8
HIDDEN
100
AcDbEllipse
 10
343.4992377544917
 20
-6.562679304123104
 30
0.0
 11
-26.28916590909261
 21
-54.07603884455493
 31
0.0
210
0.0
220
0.0
230
1.0
 40
0.4368095687330764
 41
-3.060445931048905
 42
-1.91087004702602
1001
DBPROPERTIES
1002
{
1000
PbHidd
1002
}
  0
LINE
  5
18B
330
1F
100
AcDbEntity
  8
HIDDEN
100
AcDbLine
 10
367.7872314453125
 20
48.26623153686523
 30
0.0
 11
367.4837036132812
 21
48.49630355834961
 31
0.0
1001
DBPROPERTIES
1002
{
1000
PbHidd
1002
}
  0
LINE
  5
18C
330
1F
100
AcDbEntity
  8
HIDDEN
100
AcDbLine
 10
367.4837036132812
 20
48.49630355834961
 30
0.0
 11
367.1786193847656
 21
48.72587203979492
 31
0.0
1001
DBPROPERTIES
1002
{
1000
PbHidd
1002
}
  0
LINE
  5
18D
330
1F
100
AcDbEntity
  8
HIDDEN
100
AcDbLine
 10
367.1786193847656
 20
48.72587203979492
 30
0.0
 11
366.8720703125
 21
48.95485687255859
 31
0.0
1001
DBPROPERTIES
1002
{
1000
PbHidd
1002
}
  0
LINE
  5
18E
330
1F
100
AcDbEntity
  8
HIDDEN
100
AcDbLine
 10
366.8720703125
 20
48.95485687255859
 30
0.0
 11
366.56396484375
 21
49.18305206298828
 31
0.0
1001
DBPROPERTIES
1002
{
1000
PbHidd
1002
}
  0
LINE
  5
18F
330
1F
100
AcDbEntity
  8
HIDDEN
100
AcDbLine
 10
366.56396484375
 20
49.18305206298828
 30
0.0
 11
366.2546997070312
 21
49.41080093383789
 31
0.0
1001
DBPROPERTIES
1002
{
1000
PbHidd
1002
}
  0
LINE
  5
190
330
1F
100
AcDbEntity
  8
HIDDEN
100
AcDbLine
 10
366.2546997070312
 20
49.41080093383789
 30
0.0
 11
365.9440612792969
 21
49.63761138916016
 31
0.0
1001
DBPROPERTIES
1002
{
1000
PbHidd
1002
}
  0
ELLIPSE
  5
191
330
1F
100
AcDbEntity
  8
HIDDEN
100
AcDbEllipse
 10
341.8812037657418
 20
-5.776069099572589
 30
0.0
 11
26.51630781353509
 21
54.54326304217048
 31
0.0
210
0.0
220
0.0
230
1.0
 40
0.4368095687330763
 41
0.0978142506976353
 42
1.178606220976933
1001
DBPROPERTIES
1002
{
1000
PbHidd
1002
}
  0
LINE
  5
192
330
1F
100
AcDbEntity
  8
HIDDEN
100
AcDbLine
 10
330.0
 20
44.07670635138919
 30
0.0
 11
330.0
 21
25.77424373704588
 31
0.0
1001
DBPROPERTIES
1002
{
1000
PbHidd
1002
}
  0
ELLIPSE
  5
193
330
1F
100
AcDbEntity
  8
HIDDEN
100
AcDbEllipse
 10
343.4992377544917
 20
-3.030767707133063
 30
0.0
 11
-13.17161913684538
 21
-58.66725381869771
 31
0.0
210
0.0
220
0.0
230
1.0
 40
0.5590169943749473
 41
2.765835823952577
 42
3.915411707975462
1001
DBPROPERTIES
1002
{
1000
PbHidd
1002
}
  0
LINE
  5
194
330
1F
100
AcDbEntity
  8
HIDDEN
100
AcDbLine
 10
367.7872314453125
 20
48.84117126464844
 30
0.0
 11
367.4836120605469
 21
49.06140899658203
 31
0.0
1001
DBPROPERTIES
1002
{
1000
PbHidd
1002
}
  0
LINE
  5
195
330
1F
100
AcDbEntity
  8
HIDDEN
100
AcDbLine
 10
367.4836120605469
 20
49.06140899658203
 30
0.0
 11
367.1786193847656
 21
49.27922058105469
 31
0.0
1001
DBPROPERTIES
1002
{
1000
PbHidd
1002
}
  0
LINE
  5
196
330
1F
100
AcDbEntity
  8
HIDDEN
100
AcDbLine
 10
367.1786193847656
 20
49.27922058105469
 30
0.0
 11
366.8720703125
 21
49.49420547485352
 31
0.0
1001
DBPROPERTIES
1002
{
1000
PbHidd
1002
}
  0
LINE
  5
197
330
1F
100
AcDbEntity
  8
HIDDEN
100
AcDbLine
 10
366.8720703125
 20
49.49420547485352
 30
0.0
 11
366.5640563964844
 21
49.7064323425293
 31
0.0
1001
DBPROPERTIES
1002
{
1000
PbHidd
1002
}
  0
LINE
  5
198
330
1F
100
AcDbEntity
  8
HIDDEN
100
AcDbLine
 10
366.5640563964844
 20
49.7064323425293
 30
0.0
 11
366.2546997070312
 21
49.91585540771484
 31
0.0
1001
DBPROPERTIES
1002
{
1000
PbHidd
1002
}
  0
LINE
  5
199
330
1F
100
AcDbEntity
  8
HIDDEN
100
AcDbLine
 10
366.2546997070312
 20
49.91585540771484
 30
0.0
 11
365.9440612792969
 21
50.12242889404297
 31
0.0
1001
DBPROPERTIES
1002
{
1000
PbHidd
1002
}
  0
ELLIPSE
  5
19A
330
1F
100
AcDbEntity
  8
HIDDEN
100
AcDbEllipse
 10
341.8812037657418
 20
-2.667496443130382
 30
0.0
 11
13.28542368529244
 21
59.17414672685879
 31
0.0
210
0.0
220
0.0
230
1.0
 40
0.5590169943749476
 41
-0.359089301480468
 42
-0.1639613632335479
1001
DBPROPERTIES
1002
{
1000
PbHidd
1002
}
  0
ELLIPSE
  5
19B
330
1F
100
AcDbEntity
  8
HIDDEN
100
AcDbEllipse
 10
341.8812037657418
 20
-2.667496443130382
 30
0.0
 11
13.28542368529244
 21
59.17414672685879
 31
0.0
210
0.0
220
0.0
230
1.0
 40
0.5590169943749476
 41
-0.1627144306824999
 42
0.721702668798829
1001
DBPROPERTIES
1002
{
1000
PbHidd
1002
}
  0
LINE
  5
19C
330
1F
100
AcDbEntity
  8
HIDDEN
100
AcDbLine
 10
330.0
 20
58.23170172637997
 30
0.0
 11
330.0
 21
46.66006906419814
 31
0.0
1001
DBPROPERTIES
1002
{
1000
PbHidd
1002
}
  0
ELLIPSE
  5
19D
330
1F
100
AcDbEntity
  8
HIDDEN
100
AcDbEllipse
 10
343.4992377544916
 20
1.02519116008053
 30
0.0
 11
4.553247557839369
 21
-59.95503446742935
 31
0.0
210
0.0
220
0.0
230
1.0
 40
0.5845653031794291
 41
2.974783835127631
 42
3.404314742281258
1001
DBPROPERTIES
1002
{
1000
PbHidd
1002
}
  0
ELLIPSE
  5
19E
330
1F
100
AcDbEntity
  8
HIDDEN
100
AcDbEllipse
 10
343.4992377544916
 20
1.02519116008053
 30
0.0
 11
4.553247557839369
 21
-59.95503446742935
 31
0.0
210
0.0
220
0.0
230
1.0
 40
0.5845653031794291
 41
2.254738858258373
 42
2.974783835127631
1001
DBPROPERTIES
1002
{
1000
PbHidd
1002
}
  0
LINE
  5
19F
330
1F
100
AcDbEntity
  8
HIDDEN
100
AcDbLine
 10
367.7872314453125
 20
40.97103118896484
 30
0.0
 11
367.4837036132812
 21
41.1435661315918
 31
0.0
1001
DBPROPERTIES
1002
{
1000
PbHidd
1002
}
  0
LINE
  5
1A0
330
1F
100
AcDbEntity
  8
HIDDEN
100
AcDbLine
 10
367.4837036132812
 20
41.1435661315918
 30
0.0
 11
367.1785278320312
 21
41.3116569519043
 31
0.0
1001
DBPROPERTIES
1002
{
1000
PbHidd
1002
}
  0
LINE
  5
1A1
330
1F
100
AcDbEntity
  8
HIDDEN
100
AcDbLine
 10
367.1785278320312
 20
41.3116569519043
 30
0.0
 11
366.8720703125
 21
41.47555541992188
 31
0.0
1001
DBPROPERTIES
1002
{
1000
PbHidd
1002
}
  0
LINE
  5
1A2
330
1F
100
AcDbEntity
  8
HIDDEN
100
AcDbLine
 10
366.8720703125
 20
41.47555541992188
 30
0.0
 11
366.5640563964844
 21
41.63497924804688
 31
0.0
1001
DBPROPERTIES
1002
{
1000
PbHidd
1002
}
  0
LINE
  5
1A3
330
1F
100
AcDbEntity
  8
HIDDEN
100
AcDbLine
 10
366.5640563964844
 20
41.63497924804688
 30
0.0
 11
366.2546997070312
 21
41.79000473022461
 31
0.0
1001
DBPROPERTIES
1002
{
1000
PbHidd
1002
}
  0
LINE
  5
1A4
330
1F
100
AcDbEntity
  8
HIDDEN
100
AcDbLine
 10
366.2546997070312
 20
41.79000473022461
 30
0.0
 11
365.9440612792969
 21
41.94062423706055
 31
0.0
1001
DBPROPERTIES
1002
{
1000
PbHidd
1002
}
  0
ELLIPSE
  5
1A5
330
1F
100
AcDbEntity
  8
HIDDEN
100
AcDbEllipse
 10
341.8812037657418
 20
0.9023105817734849
 30
0.0
 11
-4.592588224837407
 21
60.47305397238204
 31
0.0
210
0.0
220
0.0
230
1.0
 40
0.584565303179429
 41
-0.8701862671746697
 42
-0.1753417376427937
1001
DBPROPERTIES
1002
{
1000
PbHidd
1002
}
  0
ELLIPSE
  5
1A6
330
1F
100
AcDbEntity
  8
HIDDEN
100
AcDbEllipse
 10
341.8812037657418
 20
0.9023105817734849
 30
0.0
 11
-4.592588224837407
 21
60.47305397238204
 31
0.0
210
0.0
220
0.0
230
1.0
 40
0.584565303179429
 41
-0.1675675938804044
 42
0.2106057031046256
1001
DBPROPERTIES
1002
{
1000
PbHidd
1002
}
  0
LINE
  5
1A7
330
1F
100
AcDbEntity
  8
HIDDEN
100
AcDbLine
 10
330.0
 20
62.40000000000001
 30
0.0
 11
330.0
 21
59.47794455673071
 31
0.0
1001
DBPROPERTIES
1002
{
1000
PbHidd
1002
}
  0
ELLIPSE
  5
1A8
330
1F
100
AcDbEntity
  8
HIDDEN
100
AcDbEllipse
 10
343.4992377544917
 20
4.90388516214689
 30
0.0
 11
20.52999378628423
 21
-56.51422454965424
 31
0.0
210
0.0
220
0.0
230
1.0
 40
0.509036960455127
 41
1.764106680236132
 42
2.913682564259019
1001
DBPROPERTIES
1002
{
1000
PbHidd
1002
}
  0
LINE
  5
1A9
330
1F
100
AcDbEntity
  8
HIDDEN
100
AcDbLine
 10
367.7872314453125
 20
26.01662635803223
 30
0.0
 11
367.4837036132812
 21
26.11151123046875
 31
0.0
1001
DBPROPERTIES
1002
{
1000
PbHidd
1002
}
  0
LINE
  5
1AA
330
1F
100
AcDbEntity
  8
HIDDEN
100
AcDbLine
 10
367.4837036132812
 20
26.11151123046875
 30
0.0
 11
367.1786193847656
 21
26.20109558105469
 31
0.0
1001
DBPROPERTIES
1002
{
1000
PbHidd
1002
}
  0
LINE
  5
1AB
330
1F
100
AcDbEntity
  8
HIDDEN
100
AcDbLine
 10
367.1786193847656
 20
26.20109558105469
 30
0.0
 11
366.8720703125
 21
26.28540420532227
 31
0.0
1001
DBPROPERTIES
1002
{
1000
PbHidd
1002
}
  0
LINE
  5
1AC
330
1F
100
AcDbEntity
  8
HIDDEN
100
AcDbLine
 10
366.8720703125
 20
26.28540420532227
 30
0.0
 11
366.5640563964844
 21
26.36445999145508
 31
0.0
1001
DBPROPERTIES
1002
{
1000
PbHidd
1002
}
  0
LINE
  5
1AD
330
1F
100
AcDbEntity
  8
HIDDEN
100
AcDbLine
 10
366.5640563964844
 20
26.36445999145508
 30
0.0
 11
366.2546997070312
 21
26.43828392028809
 31
0.0
1001
DBPROPERTIES
1002
{
1000
PbHidd
1002
}
  0
LINE
  5
1AE
330
1F
100
AcDbEntity
  8
HIDDEN
100
AcDbLine
 10
366.2546997070312
 20
26.43828392028809
 30
0.0
 11
365.9440612792969
 21
26.50690078735352
 31
0.0
1001
DBPROPERTIES
1002
{
1000
PbHidd
1002
}
  0
ELLIPSE
  5
1AF
330
1F
100
AcDbEntity
  8
HIDDEN
100
AcDbEllipse
 10
341.8812037657418
 20
4.316099909854415
 30
0.0
 11
-20.70737567443292
 21
57.00251499738803
 31
0.0
210
0.0
220
0.0
230
1.0
 40
0.509036960455127
 41
-1.36081844519691
 42
-0.2800264749176149
1001
DBPROPERTIES
1002
{
1000
PbHidd
1002
}
  0
LINE
  5
1B0
330
1F
100
AcDbEntity
  8
HIDDEN
100
AcDbLine
 10
330.0
 20
55.62877974702482
 30
0.0
 11
330.0
 21
62.01154309524144
 31
0.0
1001
DBPROPERTIES
1002
{
1000
PbHidd
1002
}
  0
ELLIPSE
  5
1B1
330
1F
100
AcDbEntity
  8
HIDDEN
100
AcDbEllipse
 10
343.4992377544917
 20
7.934652869279952
 30
0.0
 11
30.46861210615285
 21
-51.83629903492734
 31
0.0
210
0.0
220
0.0
230
1.0
 40
0.3454915028125262
 41
1.344524562144157
 42
2.494100446167044
1001
DBPROPERTIES
1002
{
1000
PbHidd
1002
}
  0
LINE
  5
1B2
330
1F
100
AcDbEntity
  8
HIDDEN
100
AcDbLine
 10
367.7872314453125
 20
6.56371021270752
 30
0.0
 11
367.4837036132812
 21
6.564537048339844
 31
0.0
1001
DBPROPERTIES
1002
{
1000
PbHidd
1002
}
  0
LINE
  5
1B3
330
1F
100
AcDbEntity
  8
HIDDEN
100
AcDbLine
 10
367.4837036132812
 20
6.564537048339844
 30
0.0
 11
367.1786193847656
 21
6.560037612915039
 31
0.0
1001
DBPROPERTIES
1002
{
1000
PbHidd
1002
}
  0
LINE
  5
1B4
330
1F
100
AcDbEntity
  8
HIDDEN
100
AcDbLine
 10
367.1786193847656
 20
6.560037612915039
 30
0.0
 11
366.8720703125
 21
6.550268650054932
 31
0.0
1001
DBPROPERTIES
1002
{
1000
PbHidd
1002
}
  0
LINE
  5
1B5
330
1F
100
AcDbEntity
  8
HIDDEN
100
AcDbLine
 10
366.8720703125
 20
6.550268650054932
 30
0.0
 11
366.5640563964844
 21
6.535284996032715
 31
0.0
1001
DBPROPERTIES
1002
{
1000
PbHidd
1002
}
  0
LINE
  5
1B6
330
1F
100
AcDbEntity
  8
HIDDEN
100
AcDbLine
 10
366.5640563964844
 20
6.535284996032715
 30
0.0
 11
366.2546997070312
 21
6.515142440795898
 31
0.0
1001
DBPROPERTIES
1002
{
1000
PbHidd
1002
}
  0
LINE
  5
1B7
330
1F
100
AcDbEntity
  8
HIDDEN
100
AcDbLine
 10
366.2546997070312
 20
6.515142440795898
 30
0.0
 11
365.9440612792969
 21
6.489895820617676
 31
0.0
1001
DBPROPERTIES
1002
{
1000
PbHidd
1002
}
  0
ELLIPSE
  5
1B8
330
1F
100
AcDbEntity
  8
HIDDEN
100
AcDbEllipse
 10
341.8812037657418
 20
6.983596352984797
 30
0.0
 11
-30.73186498391407
 21
52.28417158146451
 31
0.0
210
0.0
220
0.0
230
1.0
 40
0.3454915028125262
 41
-1.780400563288887
 42
-0.6996085930095908
1001
DBPROPERTIES
1002
{
1000
PbHidd
1002
}
  0
LINE
  5
1B9
330
1F
100
AcDbEntity
  8
HIDDEN
100
AcDbLine
 10
330.0
 20
39.32093124971321
 30
0.0
 11
330.0
 21
53.82278247540172
 31
0.0
1001
DBPROPERTIES
1002
{
1000
PbHidd
1002
}
  0
ELLIPSE
  5
1BA
330
1F
100
AcDbEntity
  8
HIDDEN
100
AcDbEllipse
 10
343.4992377544917
 20
9.593447011256172
 30
0.0
 11
34.83092637082653
 21
-49.0116801330425
 31
0.0
210
0.0
220
0.0
230
1.0
 40
0.1222074256418712
 41
1.287903602902683
 42
2.133007096612136
1001
DBPROPERTIES
1002
{
1000
PbHidd
1002
}
  0
ELLIPSE
  5
1BB
330
1F
100
AcDbEntity
  8
HIDDEN
100
AcDbEllipse
 10
343.4992377544917
 20
9.593447011256172
 30
0.0
 11
34.83092637082653
 21
-49.0116801330425
 31
0.0
210
0.0
220
0.0
230
1.0
 40
0.1222074256418712
 41
0.9834312125892479
 42
1.287903602902683
1001
DBPROPERTIES
1002
{
1000
PbHidd
1002
}
  0
LINE
  5
1BC
330
1F
100
AcDbEntity
  8
HIDDEN
100
AcDbLine
 10
367.7872314453125
 20
-14.02413082122803
 30
0.0
 11
367.4837036132812
 21
-14.11750793457031
 31
0.0
1001
DBPROPERTIES
1002
{
1000
PbHidd
1002
}
  0
LINE
  5
1BD
330
1F
100
AcDbEntity
  8
HIDDEN
100
AcDbLine
 10
367.4837036132812
 20
-14.11750793457031
 30
0.0
 11
367.1786193847656
 21
-14.21531677246094
 31
0.0
1001
DBPROPERTIES
1002
{
1000
PbHidd
1002
}
  0
LINE
  5
1BE
330
1F
100
AcDbEntity
  8
HIDDEN
100
AcDbLine
 10
367.1786193847656
 20
-14.21531677246094
 30
0.0
 11
366.8720397949219
 21
-14.31747722625732
 31
0.0
1001
DBPROPERTIES
1002
{
1000
PbHidd
1002
}
  0
LINE
  5
1BF
330
1F
100
AcDbEntity
  8
HIDDEN
100
AcDbLine
 10
366.8720397949219
 20
-14.31747722625732
 30
0.0
 11
366.5640258789062
 21
-14.42390918731689
 31
0.0
1001
DBPROPERTIES
1002
{
1000
PbHidd
1002
}
  0
LINE
  5
1C0
330
1F
100
AcDbEntity
  8
HIDDEN
100
AcDbLine
 10
366.5640258789062
 20
-14.42390918731689
 30
0.0
 11
366.2546997070312
 21
-14.5345344543457
 31
0.0
1001
DBPROPERTIES
1002
{
1000
PbHidd
1002
}
  0
LINE
  5
1C1
330
1F
100
AcDbEntity
  8
HIDDEN
100
AcDbLine
 10
366.2546997070312
 20
-14.5345344543457
 30
0.0
 11
365.9440612792969
 21
-14.64927101135254
 31
0.0
1001
DBPROPERTIES
1002
{
1000
PbHidd
1002
}
  0
ELLIPSE
  5
1C2
330
1F
100
AcDbEntity
  8
HIDDEN
100
AcDbEllipse
 10
341.8812037657418
 20
8.443565542702974
 30
0.0
 11
-35.13187022643319
 21
49.43514759503204
 31
0.0
210
0.0
220
0.0
230
1.0
 40
0.1222074256418712
 41
-2.141493912843799
 42
-1.828419962499517
1001
DBPROPERTIES
1002
{
1000
PbHidd
1002
}
  0
ELLIPSE
  5
1C3
330
1F
100
AcDbEntity
  8
HIDDEN
100
AcDbEllipse
 10
343.4992377544917
 20
9.593447011256172
 30
0.0
 11
34.83092637082652
 21
-49.01168013304251
 31
0.0
210
0.0
220
0.0
230
1.0
 40
0.1222074256418715
 41
-1.461166137295214
 42
-0.6428386083783589
1001
DBPROPERTIES
1002
{
1000
PbHidd
1002
}
  0
LINE
  5
1C4
330
1F
100
AcDbEntity
  8
HIDDEN
100
AcDbLine
 10
367.7872314453125
 20
-32.18707275390625
 30
0.0
 11
367.4837036132812
 21
-32.35850143432617
 31
0.0
1001
DBPROPERTIES
1002
{
1000
PbHidd
1002
}
  0
LINE
  5
1C5
330
1F
100
AcDbEntity
  8
HIDDEN
100
AcDbLine
 10
367.4837036132812
 20
-32.35850143432617
 30
0.0
 11
367.1786193847656
 21
-32.5327033996582
 31
0.0
1001
DBPROPERTIES
1002
{
1000
PbHidd
1002
}
  0
LINE
  5
1C6
330
1F
100
AcDbEntity
  8
HIDDEN
100
AcDbLine
 10
367.1786193847656
 20
-32.5327033996582
 30
0.0
 11
366.8720703125
 21
-32.7095832824707
 31
0.0
1001
DBPROPERTIES
1002
{
1000
PbHidd
1002
}
  0
LINE
  5
1C7
330
1F
100
AcDbEntity
  8
HIDDEN
100
AcDbLine
 10
366.8720703125
 20
-32.7095832824707
 30
0.0
 11
366.5640563964844
 21
-32.88906097412109
 31
0.0
1001
DBPROPERTIES
1002
{
1000
PbHidd
1002
}
  0
LINE
  5
1C8
330
1F
100
AcDbEntity
  8
HIDDEN
100
AcDbLine
 10
366.5640563964844
 20
-32.88906097412109
 30
0.0
 11
366.2546997070312
 21
-33.071044921875
 31
0.0
1001
DBPROPERTIES
1002
{
1000
PbHidd
1002
}
  0
LINE
  5
1C9
330
1F
100
AcDbEntity
  8
HIDDEN
100
AcDbLine
 10
366.2546997070312
 20
-33.071044921875
 30
0.0
 11
365.9440612792969
 21
-33.25544738769531
 31
0.0
1001
DBPROPERTIES
1002
{
1000
PbHidd
1002
}
  0
LINE
  5
1CA
330
1F
100
AcDbEntity
  8
HIDDEN
100
AcDbLine
 10
247.5
 20
-62.40000000000001
 30
0.0
 11
247.5
 21
-0.0000000000000153
 31
0.0
1001
DBPROPERTIES
1002
{
1000
PbHidd
1002
}
  0
ELLIPSE
  5
1CB
330
1F
100
AcDbEntity
  8
HIDDEN
100
AcDbEllipse
 10
348.1528640450004
 20
0.0
 30
0.0
 11
43.59808735461471
 21
61.78006360313142
 31
0.0
210
0.0
220
0.0
230
1.0
 40
0.2012482298961787
 41
1.711873413361533
 42
1.827833293250732
1001
DBPROPERTIES
1002
{
1000
PbHidd
1002
}
  0
LINE
  5
1CC
330
1F
100
AcDbEntity
  8
HIDDEN
100
AcDbLine
 10
325.0448608398438
 20
-7.219690799713135
 30
0.0
 11
325.2838439941406
 21
-7.497360706329346
 31
0.0
1001
DBPROPERTIES
1002
{
1000
PbHidd
1002
}
  0
LINE
  5
1CD
330
1F
100
AcDbEntity
  8
HIDDEN
100
AcDbLine
 10
325.2838439941406
 20
-7.497360706329346
 30
0.0
 11
325.5224304199219
 21
-7.775644302368164
 31
0.0
1001
DBPROPERTIES
1002
{
1000
PbHidd
1002
}
  0
LINE
  5
1CE
330
1F
100
AcDbEntity
  8
HIDDEN
100
AcDbLine
 10
325.5224304199219
 20
-7.775644302368164
 30
0.0
 11
325.7604675292969
 21
-8.054482460021973
 31
0.0
1001
DBPROPERTIES
1002
{
1000
PbHidd
1002
}
  0
LINE
  5
1CF
330
1F
100
AcDbEntity
  8
HIDDEN
100
AcDbLine
 10
325.7604675292969
 20
-8.054482460021973
 30
0.0
 11
325.9978942871094
 21
-8.333759307861328
 31
0.0
1001
DBPROPERTIES
1002
{
1000
PbHidd
1002
}
  0
LINE
  5
1D0
330
1F
100
AcDbEntity
  8
HIDDEN
100
AcDbLine
 10
325.9978942871094
 20
-8.333759307861328
 30
0.0
 11
326.2346496582031
 21
-8.613375663757324
 31
0.0
1001
DBPROPERTIES
1002
{
1000
PbHidd
1002
}
  0
LINE
  5
1D1
330
1F
100
AcDbEntity
  8
HIDDEN
100
AcDbLine
 10
326.2346496582031
 20
-8.613375663757324
 30
0.0
 11
326.4706115722656
 21
-8.893230438232422
 31
0.0
1001
DBPROPERTIES
1002
{
1000
PbHidd
1002
}
  0
ELLIPSE
  5
1D2
330
1F
100
AcDbEntity
  8
HIDDEN
100
AcDbEllipse
 10
350.625
 20
0.0
 30
0.0
 11
43.59808735461471
 21
61.78006360313142
 31
0.0
210
0.0
220
0.0
230
1.0
 40
0.2012482298961787
 41
1.765292411231141
 42
1.854880066239221
1001
DBPROPERTIES
1002
{
1000
PbHidd
1002
}
  0
LINE
  5
1D3
330
1F
100
AcDbEntity
  8
HIDDEN
100
AcDbLine
 10
330.0
 20
-24.98527387630979
 30
0.0
 11
325.0448647147159
 21
-31.80543249646356
 31
0.0
1001
DBPROPERTIES
1002
{
1000
PbHidd
1002
}
  0
LINE
  5
1D4
330
1F
100
AcDbEntity
  8
HIDDEN
100
AcDbLine
 10
325.0448608398438
 20
-31.80543327331543
 30
0.0
 11
325.2838745117188
 21
-32.04567337036133
 31
0.0
1001
DBPROPERTIES
1002
{
1000
PbHidd
1002
}
  0
LINE
  5
1D5
330
1F
100
AcDbEntity
  8
HIDDEN
100
AcDbLine
 10
325.2838745117188
 20
-32.04567337036133
 30
0.0
 11
325.5224304199219
 21
-32.28595352172852
 31
0.0
1001
DBPROPERTIES
1002
{
1000
PbHidd
1002
}
  0
LINE
  5
1D6
330
1F
100
AcDbEntity
  8
HIDDEN
100
AcDbLine
 10
325.5224304199219
 20
-32.28595352172852
 30
0.0
 11
325.7604675292969
 21
-32.52618026733398
 31
0.0
1001
DBPROPERTIES
1002
{
1000
PbHidd
1002
}
  0
LINE
  5
1D7
330
1F
100
AcDbEntity
  8
HIDDEN
100
AcDbLine
 10
325.7604675292969
 20
-32.52618026733398
 30
0.0
 11
325.9978942871094
 21
-32.76626586914062
 31
0.0
1001
DBPROPERTIES
1002
{
1000
PbHidd
1002
}
  0
LINE
  5
1D8
330
1F
100
AcDbEntity
  8
HIDDEN
100
AcDbLine
 10
325.9978942871094
 20
-32.76626586914062
 30
0.0
 11
326.2346496582031
 21
-33.00611877441406
 31
0.0
1001
DBPROPERTIES
1002
{
1000
PbHidd
1002
}
  0
LINE
  5
1D9
330
1F
100
AcDbEntity
  8
HIDDEN
100
AcDbLine
 10
326.2346496582031
 20
-33.00611877441406
 30
0.0
 11
326.4706115722656
 21
-33.24565124511719
 31
0.0
1001
DBPROPERTIES
1002
{
1000
PbHidd
1002
}
  0
LINE
  5
1DA
330
1F
100
AcDbEntity
  8
HIDDEN
100
AcDbLine
 10
326.4706192996397
 20
-33.24565289615375
 30
0.0
 11
330.0
 21
-28.38787710971793
 31
0.0
1001
DBPROPERTIES
1002
{
1000
PbHidd
1002
}
  0
ELLIPSE
  5
1DB
330
1F
100
AcDbEntity
  8
HIDDEN
100
AcDbEllipse
 10
348.1528640450004
 20
0.0
 30
0.0
 11
-43.5980873546147
 21
-61.7800636031314
 31
0.0
210
0.0
220
0.0
230
1.0
 40
0.2012482298961783
 41
0.7581554925150554
 42
0.8810355801397576
1001
DBPROPERTIES
1002
{
1000
PbHidd
1002
}
  0
LINE
  5
1DC
330
1F
100
AcDbEntity
  8
HIDDEN
100
AcDbLine
 10
325.0448608398438
 20
-50.89172744750977
 30
0.0
 11
325.2838439941406
 21
-51.0529899597168
 31
0.0
1001
DBPROPERTIES
1002
{
1000
PbHidd
1002
}
  0
LINE
  5
1DD
330
1F
100
AcDbEntity
  8
HIDDEN
100
AcDbLine
 10
325.2838439941406
 20
-51.0529899597168
 30
0.0
 11
325.5224304199219
 21
-51.21372604370117
 31
0.0
1001
DBPROPERTIES
1002
{
1000
PbHidd
1002
}
  0
LINE
  5
1DE
330
1F
100
AcDbEntity
  8
HIDDEN
100
AcDbLine
 10
325.5224304199219
 20
-51.21372604370117
 30
0.0
 11
325.7604675292969
 21
-51.37380599975586
 31
0.0
1001
DBPROPERTIES
1002
{
1000
PbHidd
1002
}
  0
LINE
  5
1DF
330
1F
100
AcDbEntity
  8
HIDDEN
100
AcDbLine
 10
325.7604675292969
 20
-51.37380599975586
 30
0.0
 11
325.9978942871094
 21
-51.53318786621094
 31
0.0
1001
DBPROPERTIES
1002
{
1000
PbHidd
1002
}
  0
LINE
  5
1E0
330
1F
100
AcDbEntity
  8
HIDDEN
100
AcDbLine
 10
325.9978942871094
 20
-51.53318786621094
 30
0.0
 11
326.2346496582031
 21
-51.69180679321289
 31
0.0
1001
DBPROPERTIES
1002
{
1000
PbHidd
1002
}
  0
LINE
  5
1E1
330
1F
100
AcDbEntity
  8
HIDDEN
100
AcDbLine
 10
326.2346496582031
 20
-51.69180679321289
 30
0.0
 11
326.4706115722656
 21
-51.84960174560547
 31
0.0
1001
DBPROPERTIES
1002
{
1000
PbHidd
1002
}
  0
ELLIPSE
  5
1E2
330
1F
100
AcDbEntity
  8
HIDDEN
100
AcDbEllipse
 10
350.625
 20
0.0
 30
0.0
 11
-43.5980873546147
 21
-61.7800636031314
 31
0.0
210
0.0
220
0.0
230
1.0
 40
0.2012482298961783
 41
0.7311087195265683
 42
0.8206963745346464
1001
DBPROPERTIES
1002
{
1000
PbHidd
1002
}
  0
ELLIPSE
  5
1E3
330
1F
100
AcDbEntity
  8
HIDDEN
100
AcDbEllipse
 10
348.1528640450004
 20
0.0
 30
0.0
 11
-37.81789220778823
 21
-60.40451426056934
 31
0.0
210
0.0
220
0.0
230
1.0
 40
0.4139369167159183
 41
0.4517771794762501
 42
0.5746572671009523
1001
DBPROPERTIES
1002
{
1000
PbHidd
1002
}
  0
LINE
  5
1E4
330
1F
100
AcDbEntity
  8
HIDDEN
100
AcDbLine
 10
325.0448608398438
 20
-61.17837905883789
 30
0.0
 11
325.2838439941406
 21
-61.2327880859375
 31
0.0
1001
DBPROPERTIES
1002
{
1000
PbHidd
1002
}
  0
LINE
  5
1E5
330
1F
100
AcDbEntity
  8
HIDDEN
100
AcDbLine
 10
325.2838439941406
 20
-61.2327880859375
 30
0.0
 11
325.5224304199219
 21
-61.28618240356445
 31
0.0
1001
DBPROPERTIES
1002
{
1000
PbHidd
1002
}
  0
LINE
  5
1E6
330
1F
100
AcDbEntity
  8
HIDDEN
100
AcDbLine
 10
325.5224304199219
 20
-61.28618240356445
 30
0.0
 11
325.7604675292969
 21
-61.33843612670898
 31
0.0
1001
DBPROPERTIES
1002
{
1000
PbHidd
1002
}
  0
LINE
  5
1E7
330
1F
100
AcDbEntity
  8
HIDDEN
100
AcDbLine
 10
325.7604675292969
 20
-61.33843612670898
 30
0.0
 11
325.9978942871094
 21
-61.38955307006836
 31
0.0
1001
DBPROPERTIES
1002
{
1000
PbHidd
1002
}
  0
LINE
  5
1E8
330
1F
100
AcDbEntity
  8
HIDDEN
100
AcDbLine
 10
325.9978942871094
 20
-61.38955307006836
 30
0.0
 11
326.2346496582031
 21
-61.43949508666992
 31
0.0
1001
DBPROPERTIES
1002
{
1000
PbHidd
1002
}
  0
LINE
  5
1E9
330
1F
100
AcDbEntity
  8
HIDDEN
100
AcDbLine
 10
326.2346496582031
 20
-61.43949508666992
 30
0.0
 11
326.4706115722656
 21
-61.48828125
 31
0.0
1001
DBPROPERTIES
1002
{
1000
PbHidd
1002
}
  0
ELLIPSE
  5
1EA
330
1F
100
AcDbEntity
  8
HIDDEN
100
AcDbEllipse
 10
350.625
 20
0.0
 30
0.0
 11
-37.81789220778823
 21
-60.40451426056934
 31
0.0
210
0.0
220
0.0
230
1.0
 40
0.4139369167159183
 41
0.4247304064877625
 42
0.5143180614958411
1001
DBPROPERTIES
1002
{
1000
PbHidd
1002
}
  0
ELLIPSE
  5
1EB
330
1F
100
AcDbEntity
  8
HIDDEN
100
AcDbEllipse
 10
348.1528640450004
 20
0.0
 30
0.0
 11
-24.17099955362846
 21
-60.48844428730496
 31
0.0
210
0.0
220
0.0
230
1.0
 40
0.6340950937257177
 41
0.0274799994536916
 42
0.1503600870783936
1001
DBPROPERTIES
1002
{
1000
PbHidd
1002
}
  0
LINE
  5
1EC
330
1F
100
AcDbEntity
  8
HIDDEN
100
AcDbLine
 10
325.0448608398438
 20
-60.8867301940918
 30
0.0
 11
325.2838439941406
 21
-60.82487869262695
 31
0.0
1001
DBPROPERTIES
1002
{
1000
PbHidd
1002
}
  0
LINE
  5
1ED
330
1F
100
AcDbEntity
  8
HIDDEN
100
AcDbLine
 10
325.2838439941406
 20
-60.82487869262695
 30
0.0
 11
325.5224304199219
 21
-60.76169967651367
 31
0.0
1001
DBPROPERTIES
1002
{
1000
PbHidd
1002
}
  0
LINE
  5
1EE
330
1F
100
AcDbEntity
  8
HIDDEN
100
AcDbLine
 10
325.5224304199219
 20
-60.76169967651367
 30
0.0
 11
325.7604675292969
 21
-60.69709014892578
 31
0.0
1001
DBPROPERTIES
1002
{
1000
PbHidd
1002
}
  0
LINE
  5
1EF
330
1F
100
AcDbEntity
  8
HIDDEN
100
AcDbLine
 10
325.7604675292969
 20
-60.69709014892578
 30
0.0
 11
325.9978942871094
 21
-60.63110733032227
 31
0.0
1001
DBPROPERTIES
1002
{
1000
PbHidd
1002
}
  0
LINE
  5
1F0
330
1F
100
AcDbEntity
  8
HIDDEN
100
AcDbLine
 10
325.9978942871094
 20
-60.63110733032227
 30
0.0
 11
326.2346496582031
 21
-60.56376266479492
 31
0.0
1001
DBPROPERTIES
1002
{
1000
PbHidd
1002
}
  0
LINE
  5
1F1
330
1F
100
AcDbEntity
  8
HIDDEN
100
AcDbLine
 10
326.2346496582031
 20
-60.56376266479492
 30
0.0
 11
326.4706115722656
 21
-60.49507904052734
 31
0.0
1001
DBPROPERTIES
1002
{
1000
PbHidd
1002
}
  0
ELLIPSE
  5
1F2
330
1F
100
AcDbEntity
  8
HIDDEN
100
AcDbEllipse
 10
350.625
 20
0.0
 30
0.0
 11
-24.17099955362846
 21
-60.48844428730496
 31
0.0
210
0.0
220
0.0
230
1.0
 40
0.6340950937257177
 41
0.0004332264652038
 42
0.0900208814732824
1001
DBPROPERTIES
1002
{
1000
PbHidd
1002
}
  0
ELLIPSE
  5
1F3
330
1F
100
AcDbEntity
  8
HIDDEN
100
AcDbEllipse
 10
348.1528640450004
 20
0.0
 30
0.0
 11
-9.729276780711697
 21
62.01206300487607
 31
0.0
210
0.0
220
0.0
230
1.0
 40
0.714054377768111
 41
2.39046884720806
 42
2.513348934832762
1001
DBPROPERTIES
1002
{
1000
PbHidd
1002
}
  0
LINE
  5
1F4
330
1F
100
AcDbEntity
  8
HIDDEN
100
AcDbLine
 10
325.0448608398438
 20
-50.06721878051758
 30
0.0
 11
325.2838439941406
 21
-49.89979553222656
 31
0.0
1001
DBPROPERTIES
1002
{
1000
PbHidd
1002
}
  0
LINE
  5
1F5
330
1F
100
AcDbEntity
  8
HIDDEN
100
AcDbLine
 10
325.2838439941406
 20
-49.89979553222656
 30
0.0
 11
325.5224304199219
 21
-49.7309684753418
 31
0.0
1001
DBPROPERTIES
1002
{
1000
PbHidd
1002
}
  0
LINE
  5
1F6
330
1F
100
AcDbEntity
  8
HIDDEN
100
AcDbLine
 10
325.5224304199219
 20
-49.7309684753418
 30
0.0
 11
325.7604675292969
 21
-49.5606689453125
 31
0.0
1001
DBPROPERTIES
1002
{
1000
PbHidd
1002
}
  0
LINE
  5
1F7
330
1F
100
AcDbEntity
  8
HIDDEN
100
AcDbLine
 10
325.7604675292969
 20
-49.5606689453125
 30
0.0
 11
325.9978942871094
 21
-49.38898849487305
 31
0.0
1001
DBPROPERTIES
1002
{
1000
PbHidd
1002
}
  0
LINE
  5
1F8
330
1F
100
AcDbEntity
  8
HIDDEN
100
AcDbLine
 10
325.9978942871094
 20
-49.38898849487305
 30
0.0
 11
326.2346496582031
 21
-49.21599197387695
 31
0.0
1001
DBPROPERTIES
1002
{
1000
PbHidd
1002
}
  0
LINE
  5
1F9
330
1F
100
AcDbEntity
  8
HIDDEN
100
AcDbLine
 10
326.2346496582031
 20
-49.21599197387695
 30
0.0
 11
326.4706115722656
 21
-49.04172897338867
 31
0.0
1001
DBPROPERTIES
1002
{
1000
PbHidd
1002
}
  0
ELLIPSE
  5
1FA
330
1F
100
AcDbEntity
  8
HIDDEN
100
AcDbEllipse
 10
350.625
 20
0.0
 30
0.0
 11
-9.729276780711697
 21
62.01206300487607
 31
0.0
210
0.0
220
0.0
230
1.0
 40
0.714054377768111
 41
2.363422074219572
 42
2.453009729227651
1001
DBPROPERTIES
1002
{
1000
PbHidd
1002
}
  0
ELLIPSE
  5
1FB
330
1F
100
AcDbEntity
  8
HIDDEN
100
AcDbEllipse
 10
348.1528640450004
 20
0.0
 30
0.0
 11
-32.56894729210519
 21
60.00626334328863
 31
0.0
210
0.0
220
0.0
230
1.0
 40
0.5255769183811011
 41
1.8052738237289
 42
1.9281539113536
1001
DBPROPERTIES
1002
{
1000
PbHidd
1002
}
  0
LINE
  5
1FC
330
1F
100
AcDbEntity
  8
HIDDEN
100
AcDbLine
 10
325.0448608398438
 20
-30.59062576293945
 30
0.0
 11
325.2838439941406
 21
-30.34658241271973
 31
0.0
1001
DBPROPERTIES
1002
{
1000
PbHidd
1002
}
  0
LINE
  5
1FD
330
1F
100
AcDbEntity
  8
HIDDEN
100
AcDbLine
 10
325.2838439941406
 20
-30.34658241271973
 30
0.0
 11
325.5224304199219
 21
-30.10129928588867
 31
0.0
1001
DBPROPERTIES
1002
{
1000
PbHidd
1002
}
  0
LINE
  5
1FE
330
1F
100
AcDbEntity
  8
HIDDEN
100
AcDbLine
 10
325.5224304199219
 20
-30.10129928588867
 30
0.0
 11
325.7604675292969
 21
-29.85475540161133
 31
0.0
1001
DBPROPERTIES
1002
{
1000
PbHidd
1002
}
  0
LINE
  5
1FF
330
1F
100
AcDbEntity
  8
HIDDEN
100
AcDbLine
 10
325.7604675292969
 20
-29.85475540161133
 30
0.0
 11
325.9978942871094
 21
-29.60706901550293
 31
0.0
1001
DBPROPERTIES
1002
{
1000
PbHidd
1002
}
  0
LINE
  5
200
330
1F
100
AcDbEntity
  8
HIDDEN
100
AcDbLine
 10
325.9978942871094
 20
-29.60706901550293
 30
0.0
 11
326.2346496582031
 21
-29.35832977294922
 31
0.0
1001
DBPROPERTIES
1002
{
1000
PbHidd
1002
}
  0
LINE
  5
201
330
1F
100
AcDbEntity
  8
HIDDEN
100
AcDbLine
 10
326.2346496582031
 20
-29.35832977294922
 30
0.0
 11
326.4706115722656
 21
-29.10861778259277
 31
0.0
1001
DBPROPERTIES
1002
{
1000
PbHidd
1002
}
  0
ELLIPSE
  5
202
330
1F
100
AcDbEntity
  8
HIDDEN
100
AcDbEllipse
 10
350.625
 20
0.0
 30
0.0
 11
-32.56894729210519
 21
60.00626334328863
 31
0.0
210
0.0
220
0.0
230
1.0
 40
0.5255769183811011
 41
1.77822705074041
 42
1.86781470574849
1001
DBPROPERTIES
1002
{
1000
PbHidd
1002
}
  0
ELLIPSE
  5
203
330
1F
100
AcDbEntity
  8
HIDDEN
100
AcDbEllipse
 10
348.1528640450004
 20
0.0
 30
0.0
 11
-41.31083414189627
 21
61.10944597133437
 31
0.0
210
0.0
220
0.0
230
1.0
 40
0.3056146845806991
 41
1.460542592428558
 42
1.583422680053258
1001
DBPROPERTIES
1002
{
1000
PbHidd
1002
}
  0
LINE
  5
204
330
1F
100
AcDbEntity
  8
HIDDEN
100
AcDbLine
 10
325.0448608398438
 20
-5.824637413024902
 30
0.0
 11
325.2838439941406
 21
-5.54617166519165
 31
0.0
1001
DBPROPERTIES
1002
{
1000
PbHidd
1002
}
  0
LINE
  5
205
330
1F
100
AcDbEntity
  8
HIDDEN
100
AcDbLine
 10
325.2838439941406
 20
-5.54617166519165
 30
0.0
 11
325.5224304199219
 21
-5.266842842102051
 31
0.0
1001
DBPROPERTIES
1002
{
1000
PbHidd
1002
}
  0
LINE
  5
206
330
1F
100
AcDbEntity
  8
HIDDEN
100
AcDbLine
 10
325.5224304199219
 20
-5.266842842102051
 30
0.0
 11
325.7604675292969
 21
-4.986684322357178
 31
0.0
1001
DBPROPERTIES
1002
{
1000
PbHidd
1002
}
  0
LINE
  5
207
330
1F
100
AcDbEntity
  8
HIDDEN
100
AcDbLine
 10
325.7604675292969
 20
-4.986684322357178
 30
0.0
 11
325.9978942871094
 21
-4.705818176269531
 31
0.0
1001
DBPROPERTIES
1002
{
1000
PbHidd
1002
}
  0
LINE
  5
208
330
1F
100
AcDbEntity
  8
HIDDEN
100
AcDbLine
 10
325.9978942871094
 20
-4.705818176269531
 30
0.0
 11
326.2346496582031
 21
-4.424344062805176
 31
0.0
1001
DBPROPERTIES
1002
{
1000
PbHidd
1002
}
  0
LINE
  5
209
330
1F
100
AcDbEntity
  8
HIDDEN
100
AcDbLine
 10
326.2346496582031
 20
-4.424344062805176
 30
0.0
 11
326.4706115722656
 21
-4.142361640930176
 31
0.0
1001
DBPROPERTIES
1002
{
1000
PbHidd
1002
}
  0
ELLIPSE
  5
20A
330
1F
100
AcDbEntity
  8
HIDDEN
100
AcDbEllipse
 10
350.625
 20
0.0
 30
0.0
 11
-41.31083414189627
 21
61.10944597133437
 31
0.0
210
0.0
220
0.0
230
1.0
 40
0.3056146845806991
 41
1.433495819440069
 42
1.523083474448148
1001
DBPROPERTIES
1002
{
1000
PbHidd
1002
}
  0
LINE
  5
20B
330
1F
100
AcDbEntity
  8
HIDDEN
100
AcDbLine
 10
268.125
 20
-62.40000152587891
 30
0.0
 11
268.1249084472656
 21
-62.40000152587891
 31
0.0
1001
DBPROPERTIES
1002
{
1000
PbHidd
1002
}
  0
LINE
  5
20C
330
1F
100
AcDbEntity
  8
HIDDEN
100
AcDbLine
 10
268.1249084472656
 20
-62.40000152587891
 30
0.0
 11
268.1248474121094
 21
-62.40000152587891
 31
0.0
1001
DBPROPERTIES
1002
{
1000
PbHidd
1002
}
  0
LINE
  5
20D
330
1F
100
AcDbEntity
  8
HIDDEN
100
AcDbLine
 10
268.1248474121094
 20
-62.40000152587891
 30
0.0
 11
268.124755859375
 21
-62.40000152587891
 31
0.0
1001
DBPROPERTIES
1002
{
1000
PbHidd
1002
}
  0
LINE
  5
20E
330
1F
100
AcDbEntity
  8
HIDDEN
100
AcDbLine
 10
268.124755859375
 20
-62.40000152587891
 30
0.0
 11
268.1246643066406
 21
-62.40000152587891
 31
0.0
1001
DBPROPERTIES
1002
{
1000
PbHidd
1002
}
  0
LINE
  5
20F
330
1F
100
AcDbEntity
  8
HIDDEN
100
AcDbLine
 10
268.1246643066406
 20
-62.40000152587891
 30
0.0
 11
268.1246032714844
 21
-62.40000152587891
 31
0.0
1001
DBPROPERTIES
1002
{
1000
PbHidd
1002
}
  0
LINE
  5
210
330
1F
100
AcDbEntity
  8
HIDDEN
100
AcDbLine
 10
268.1246032714844
 20
-62.40000152587891
 30
0.0
 11
268.12451171875
 21
-62.40000152587891
 31
0.0
1001
DBPROPERTIES
1002
{
1000
PbHidd
1002
}
  0
LINE
  5
211
330
1F
100
AcDbEntity
  8
HIDDEN
100
AcDbLine
 10
268.12451171875
 20
-62.40000152587891
 30
0.0
 11
268.1244506835938
 21
-62.40000152587891
 31
0.0
1001
DBPROPERTIES
1002
{
1000
PbHidd
1002
}
  0
LINE
  5
212
330
1F
100
AcDbEntity
  8
HIDDEN
100
AcDbLine
 10
268.1244506835938
 20
-62.40000152587891
 30
0.0
 11
268.1243896484375
 21
-62.40000152587891
 31
0.0
1001
DBPROPERTIES
1002
{
1000
PbHidd
1002
}
  0
LINE
  5
213
330
1F
100
AcDbEntity
  8
HIDDEN
100
AcDbLine
 10
268.1243896484375
 20
-62.40000152587891
 30
0.0
 11
268.1243286132812
 21
-62.40000152587891
 31
0.0
1001
DBPROPERTIES
1002
{
1000
PbHidd
1002
}
  0
LINE
  5
214
330
1F
100
AcDbEntity
  8
HIDDEN
100
AcDbLine
 10
268.1243286132812
 20
-62.40000152587891
 30
0.0
 11
268.124267578125
 21
-62.40000152587891
 31
0.0
1001
DBPROPERTIES
1002
{
1000
PbHidd
1002
}
  0
LINE
  5
215
330
1F
100
AcDbEntity
  8
HIDDEN
100
AcDbLine
 10
268.124267578125
 20
-62.40000152587891
 30
0.0
 11
268.1242065429688
 21
-62.40000152587891
 31
0.0
1001
DBPROPERTIES
1002
{
1000
PbHidd
1002
}
  0
LINE
  5
216
330
1F
100
AcDbEntity
  8
HIDDEN
100
AcDbLine
 10
268.1242065429688
 20
-62.40000152587891
 30
0.0
 11
268.1241760253906
 21
-62.40000152587891
 31
0.0
1001
DBPROPERTIES
1002
{
1000
PbHidd
1002
}
  0
LINE
  5
217
330
1F
100
AcDbEntity
  8
HIDDEN
100
AcDbLine
 10
268.1241760253906
 20
-62.40000152587891
 30
0.0
 11
268.1241149902344
 21
-62.40000152587891
 31
0.0
1001
DBPROPERTIES
1002
{
1000
PbHidd
1002
}
  0
LINE
  5
218
330
1F
100
AcDbEntity
  8
HIDDEN
100
AcDbLine
 10
268.1241149902344
 20
-62.40000152587891
 30
0.0
 11
268.1240844726562
 21
-62.40000152587891
 31
0.0
1001
DBPROPERTIES
1002
{
1000
PbHidd
1002
}
  0
LINE
  5
219
330
1F
100
AcDbEntity
  8
HIDDEN
100
AcDbLine
 10
268.1240844726562
 20
-62.40000152587891
 30
0.0
 11
268.1240539550781
 21
-62.40000152587891
 31
0.0
1001
DBPROPERTIES
1002
{
1000
PbHidd
1002
}
  0
LINE
  5
21A
330
1F
100
AcDbEntity
  8
HIDDEN
100
AcDbLine
 10
268.1240539550781
 20
-62.40000152587891
 30
0.0
 11
268.1240234375
 21
-62.40000152587891
 31
0.0
1001
DBPROPERTIES
1002
{
1000
PbHidd
1002
}
  0
LINE
  5
21B
330
1F
100
AcDbEntity
  8
HIDDEN
100
AcDbLine
 10
268.1240234375
 20
-62.40000152587891
 30
0.0
 11
268.1240234375
 21
-62.40000152587891
 31
0.0
1001
DBPROPERTIES
1002
{
1000
PbHidd
1002
}
  0
LINE
  5
21C
330
1F
100
AcDbEntity
  8
HIDDEN
100
AcDbLine
 10
268.1240234375
 20
-62.40000152587891
 30
0.0
 11
268.1239929199219
 21
-62.40000152587891
 31
0.0
1001
DBPROPERTIES
1002
{
1000
PbHidd
1002
}
  0
LINE
  5
21D
330
1F
100
AcDbEntity
  8
HIDDEN
100
AcDbLine
 10
268.1239929199219
 20
-62.40000152587891
 30
0.0
 11
268.1239929199219
 21
-62.40000152587891
 31
0.0
1001
DBPROPERTIES
1002
{
1000
PbHidd
1002
}
  0
LINE
  5
21E
330
1F
100
AcDbEntity
  8
HIDDEN
100
AcDbLine
 10
268.1239929199219
 20
-62.40000152587891
 30
0.0
 11
268.1239929199219
 21
-62.40000152587891
 31
0.0
1001
DBPROPERTIES
1002
{
1000
PbHidd
1002
}
  0
LINE
  5
21F
330
1F
100
AcDbEntity
  8
HIDDEN
100
AcDbLine
 10
268.1239929199219
 20
-62.40000152587891
 30
0.0
 11
268.1240234375
 21
-62.40000152587891
 31
0.0
1001
DBPROPERTIES
1002
{
1000
PbHidd
1002
}
  0
LINE
  5
220
330
1F
100
AcDbEntity
  8
HIDDEN
100
AcDbLine
 10
268.1240234375
 20
-62.40000152587891
 30
0.0
 11
268.1240234375
 21
-62.40000152587891
 31
0.0
1001
DBPROPERTIES
1002
{
1000
PbHidd
1002
}
  0
LINE
  5
221
330
1F
100
AcDbEntity
  8
HIDDEN
100
AcDbLine
 10
268.1240234375
 20
-62.40000152587891
 30
0.0
 11
268.1240539550781
 21
-62.40000152587891
 31
0.0
1001
DBPROPERTIES
1002
{
1000
PbHidd
1002
}
  0
LINE
  5
222
330
1F
100
AcDbEntity
  8
HIDDEN
100
AcDbLine
 10
268.1240539550781
 20
-62.40000152587891
 30
0.0
 11
268.1240844726562
 21
-62.40000152587891
 31
0.0
1001
DBPROPERTIES
1002
{
1000
PbHidd
1002
}
  0
LINE
  5
223
330
1F
100
AcDbEntity
  8
HIDDEN
100
AcDbLine
 10
268.1240844726562
 20
-62.40000152587891
 30
0.0
 11
268.1241149902344
 21
-62.40000152587891
 31
0.0
1001
DBPROPERTIES
1002
{
1000
PbHidd
1002
}
  0
LINE
  5
224
330
1F
100
AcDbEntity
  8
HIDDEN
100
AcDbLine
 10
268.1241149902344
 20
-62.40000152587891
 30
0.0
 11
268.1241760253906
 21
-62.40000152587891
 31
0.0
1001
DBPROPERTIES
1002
{
1000
PbHidd
1002
}
  0
LINE
  5
225
330
1F
100
AcDbEntity
  8
HIDDEN
100
AcDbLine
 10
268.1241760253906
 20
-62.40000152587891
 30
0.0
 11
268.1242065429688
 21
-62.40000152587891
 31
0.0
1001
DBPROPERTIES
1002
{
1000
PbHidd
1002
}
  0
LINE
  5
226
330
1F
100
AcDbEntity
  8
HIDDEN
100
AcDbLine
 10
268.1242065429688
 20
-62.40000152587891
 30
0.0
 11
268.124267578125
 21
-62.40000152587891
 31
0.0
1001
DBPROPERTIES
1002
{
1000
PbHidd
1002
}
  0
LINE
  5
227
330
1F
100
AcDbEntity
  8
HIDDEN
100
AcDbLine
 10
268.124267578125
 20
-62.40000152587891
 30
0.0
 11
268.1243286132812
 21
-62.40000152587891
 31
0.0
1001
DBPROPERTIES
1002
{
1000
PbHidd
1002
}
  0
LINE
  5
228
330
1F
100
AcDbEntity
  8
HIDDEN
100
AcDbLine
 10
268.1243286132812
 20
-62.40000152587891
 30
0.0
 11
268.1243896484375
 21
-62.40000152587891
 31
0.0
1001
DBPROPERTIES
1002
{
1000
PbHidd
1002
}
  0
LINE
  5
229
330
1F
100
AcDbEntity
  8
HIDDEN
100
AcDbLine
 10
268.1243896484375
 20
-62.40000152587891
 30
0.0
 11
268.1244506835938
 21
-62.40000152587891
 31
0.0
1001
DBPROPERTIES
1002
{
1000
PbHidd
1002
}
  0
LINE
  5
22A
330
1F
100
AcDbEntity
  8
HIDDEN
100
AcDbLine
 10
268.1244506835938
 20
-62.40000152587891
 30
0.0
 11
268.12451171875
 21
-62.40000152587891
 31
0.0
1001
DBPROPERTIES
1002
{
1000
PbHidd
1002
}
  0
LINE
  5
22B
330
1F
100
AcDbEntity
  8
HIDDEN
100
AcDbLine
 10
268.12451171875
 20
-62.40000152587891
 30
0.0
 11
268.1246032714844
 21
-62.40000152587891
 31
0.0
1001
DBPROPERTIES
1002
{
1000
PbHidd
1002
}
  0
LINE
  5
22C
330
1F
100
AcDbEntity
  8
HIDDEN
100
AcDbLine
 10
268.1246032714844
 20
-62.40000152587891
 30
0.0
 11
268.1246643066406
 21
-62.40000152587891
 31
0.0
1001
DBPROPERTIES
1002
{
1000
PbHidd
1002
}
  0
LINE
  5
22D
330
1F
100
AcDbEntity
  8
HIDDEN
100
AcDbLine
 10
268.1246643066406
 20
-62.40000152587891
 30
0.0
 11
268.124755859375
 21
-62.40000152587891
 31
0.0
1001
DBPROPERTIES
1002
{
1000
PbHidd
1002
}
  0
LINE
  5
22E
330
1F
100
AcDbEntity
  8
HIDDEN
100
AcDbLine
 10
268.124755859375
 20
-62.40000152587891
 30
0.0
 11
268.1248474121094
 21
-62.40000152587891
 31
0.0
1001
DBPROPERTIES
1002
{
1000
PbHidd
1002
}
  0
LINE
  5
22F
330
1F
100
AcDbEntity
  8
HIDDEN
100
AcDbLine
 10
268.1248474121094
 20
-62.40000152587891
 30
0.0
 11
268.1249084472656
 21
-62.40000152587891
 31
0.0
1001
DBPROPERTIES
1002
{
1000
PbHidd
1002
}
  0
LINE
  5
230
330
1F
100
AcDbEntity
  8
HIDDEN
100
AcDbLine
 10
268.1249084472656
 20
-62.40000152587891
 30
0.0
 11
268.125
 21
-62.40000152587891
 31
0.0
1001
DBPROPERTIES
1002
{
1000
PbHidd
1002
}
  0
LINE
  5
231
330
1F
100
AcDbEntity
  8
HIDDEN
100
AcDbLine
 10
268.125
 20
-62.40000152587891
 30
0.0
 11
268.1250915527344
 21
-62.40000152587891
 31
0.0
1001
DBPROPERTIES
1002
{
1000
PbHidd
1002
}
  0
LINE
  5
232
330
1F
100
AcDbEntity
  8
HIDDEN
100
AcDbLine
 10
268.1250915527344
 20
-62.40000152587891
 30
0.0
 11
268.1251525878906
 21
-62.40000152587891
 31
0.0
1001
DBPROPERTIES
1002
{
1000
PbHidd
1002
}
  0
LINE
  5
233
330
1F
100
AcDbEntity
  8
HIDDEN
100
AcDbLine
 10
268.1251525878906
 20
-62.40000152587891
 30
0.0
 11
268.125244140625
 21
-62.40000152587891
 31
0.0
1001
DBPROPERTIES
1002
{
1000
PbHidd
1002
}
  0
LINE
  5
234
330
1F
100
AcDbEntity
  8
HIDDEN
100
AcDbLine
 10
268.125244140625
 20
-62.40000152587891
 30
0.0
 11
268.1253356933594
 21
-62.40000152587891
 31
0.0
1001
DBPROPERTIES
1002
{
1000
PbHidd
1002
}
  0
LINE
  5
235
330
1F
100
AcDbEntity
  8
HIDDEN
100
AcDbLine
 10
268.1253356933594
 20
-62.40000152587891
 30
0.0
 11
268.1253967285156
 21
-62.40000152587891
 31
0.0
1001
DBPROPERTIES
1002
{
1000
PbHidd
1002
}
  0
LINE
  5
236
330
1F
100
AcDbEntity
  8
HIDDEN
100
AcDbLine
 10
268.1253967285156
 20
-62.40000152587891
 30
0.0
 11
268.12548828125
 21
-62.40000152587891
 31
0.0
1001
DBPROPERTIES
1002
{
1000
PbHidd
1002
}
  0
LINE
  5
237
330
1F
100
AcDbEntity
  8
HIDDEN
100
AcDbLine
 10
268.12548828125
 20
-62.40000152587891
 30
0.0
 11
268.1255493164062
 21
-62.40000152587891
 31
0.0
1001
DBPROPERTIES
1002
{
1000
PbHidd
1002
}
  0
LINE
  5
238
330
1F
100
AcDbEntity
  8
HIDDEN
100
AcDbLine
 10
268.1255493164062
 20
-62.40000152587891
 30
0.0
 11
268.1256103515625
 21
-62.40000152587891
 31
0.0
1001
DBPROPERTIES
1002
{
1000
PbHidd
1002
}
  0
LINE
  5
239
330
1F
100
AcDbEntity
  8
HIDDEN
100
AcDbLine
 10
268.1256103515625
 20
-62.40000152587891
 30
0.0
 11
268.1256713867188
 21
-62.40000152587891
 31
0.0
1001
DBPROPERTIES
1002
{
1000
PbHidd
1002
}
  0
LINE
  5
23A
330
1F
100
AcDbEntity
  8
HIDDEN
100
AcDbLine
 10
268.1256713867188
 20
-62.40000152587891
 30
0.0
 11
268.125732421875
 21
-62.40000152587891
 31
0.0
1001
DBPROPERTIES
1002
{
1000
PbHidd
1002
}
  0
LINE
  5
23B
330
1F
100
AcDbEntity
  8
HIDDEN
100
AcDbLine
 10
268.125732421875
 20
-62.40000152587891
 30
0.0
 11
268.1257934570312
 21
-62.40000152587891
 31
0.0
1001
DBPROPERTIES
1002
{
1000
PbHidd
1002
}
  0
LINE
  5
23C
330
1F
100
AcDbEntity
  8
HIDDEN
100
AcDbLine
 10
268.1257934570312
 20
-62.40000152587891
 30
0.0
 11
268.1258239746094
 21
-62.40000152587891
 31
0.0
1001
DBPROPERTIES
1002
{
1000
PbHidd
1002
}
  0
LINE
  5
23D
330
1F
100
AcDbEntity
  8
HIDDEN
100
AcDbLine
 10
268.1258239746094
 20
-62.40000152587891
 30
0.0
 11
268.1258850097656
 21
-62.40000152587891
 31
0.0
1001
DBPROPERTIES
1002
{
1000
PbHidd
1002
}
  0
LINE
  5
23E
330
1F
100
AcDbEntity
  8
HIDDEN
100
AcDbLine
 10
268.1258850097656
 20
-62.40000152587891
 30
0.0
 11
268.1259155273438
 21
-62.40000152587891
 31
0.0
1001
DBPROPERTIES
1002
{
1000
PbHidd
1002
}
  0
LINE
  5
23F
330
1F
100
AcDbEntity
  8
HIDDEN
100
AcDbLine
 10
268.1259155273438
 20
-62.40000152587891
 30
0.0
 11
268.1259460449219
 21
-62.40000152587891
 31
0.0
1001
DBPROPERTIES
1002
{
1000
PbHidd
1002
}
  0
LINE
  5
240
330
1F
100
AcDbEntity
  8
HIDDEN
100
AcDbLine
 10
268.1259460449219
 20
-62.40000152587891
 30
0.0
 11
268.1259765625
 21
-62.40000152587891
 31
0.0
1001
DBPROPERTIES
1002
{
1000
PbHidd
1002
}
  0
LINE
  5
241
330
1F
100
AcDbEntity
  8
HIDDEN
100
AcDbLine
 10
268.1259765625
 20
-62.40000152587891
 30
0.0
 11
268.1259765625
 21
-62.40000152587891
 31
0.0
1001
DBPROPERTIES
1002
{
1000
PbHidd
1002
}
  0
LINE
  5
242
330
1F
100
AcDbEntity
  8
HIDDEN
100
AcDbLine
 10
268.1259765625
 20
-62.40000152587891
 30
0.0
 11
268.1260070800781
 21
-62.40000152587891
 31
0.0
1001
DBPROPERTIES
1002
{
1000
PbHidd
1002
}
  0
LINE
  5
243
330
1F
100
AcDbEntity
  8
HIDDEN
100
AcDbLine
 10
268.1260070800781
 20
-62.40000152587891
 30
0.0
 11
268.1260070800781
 21
-62.40000152587891
 31
0.0
1001
DBPROPERTIES
1002
{
1000
PbHidd
1002
}
  0
LINE
  5
244
330
1F
100
AcDbEntity
  8
HIDDEN
100
AcDbLine
 10
268.1260070800781
 20
-62.40000152587891
 30
0.0
 11
268.1260070800781
 21
-62.40000152587891
 31
0.0
1001
DBPROPERTIES
1002
{
1000
PbHidd
1002
}
  0
LINE
  5
245
330
1F
100
AcDbEntity
  8
HIDDEN
100
AcDbLine
 10
268.1260070800781
 20
-62.40000152587891
 30
0.0
 11
268.1259765625
 21
-62.40000152587891
 31
0.0
1001
DBPROPERTIES
1002
{
1000
PbHidd
1002
}
  0
LINE
  5
246
330
1F
100
AcDbEntity
  8
HIDDEN
100
AcDbLine
 10
268.1259765625
 20
-62.40000152587891
 30
0.0
 11
268.1259765625
 21
-62.40000152587891
 31
0.0
1001
DBPROPERTIES
1002
{
1000
PbHidd
1002
}
  0
LINE
  5
247
330
1F
100
AcDbEntity
  8
HIDDEN
100
AcDbLine
 10
268.1259765625
 20
-62.40000152587891
 30
0.0
 11
268.1259460449219
 21
-62.40000152587891
 31
0.0
1001
DBPROPERTIES
1002
{
1000
PbHidd
1002
}
  0
LINE
  5
248
330
1F
100
AcDbEntity
  8
HIDDEN
100
AcDbLine
 10
268.1259460449219
 20
-62.40000152587891
 30
0.0
 11
268.1259155273438
 21
-62.40000152587891
 31
0.0
1001
DBPROPERTIES
1002
{
1000
PbHidd
1002
}
  0
LINE
  5
249
330
1F
100
AcDbEntity
  8
HIDDEN
100
AcDbLine
 10
268.1259155273438
 20
-62.40000152587891
 30
0.0
 11
268.1258850097656
 21
-62.40000152587891
 31
0.0
1001
DBPROPERTIES
1002
{
1000
PbHidd
1002
}
  0
LINE
  5
24A
330
1F
100
AcDbEntity
  8
HIDDEN
100
AcDbLine
 10
268.1258850097656
 20
-62.40000152587891
 30
0.0
 11
268.1258239746094
 21
-62.40000152587891
 31
0.0
1001
DBPROPERTIES
1002
{
1000
PbHidd
1002
}
  0
LINE
  5
24B
330
1F
100
AcDbEntity
  8
HIDDEN
100
AcDbLine
 10
268.1258239746094
 20
-62.40000152587891
 30
0.0
 11
268.1257934570312
 21
-62.40000152587891
 31
0.0
1001
DBPROPERTIES
1002
{
1000
PbHidd
1002
}
  0
LINE
  5
24C
330
1F
100
AcDbEntity
  8
HIDDEN
100
AcDbLine
 10
268.1257934570312
 20
-62.40000152587891
 30
0.0
 11
268.125732421875
 21
-62.40000152587891
 31
0.0
1001
DBPROPERTIES
1002
{
1000
PbHidd
1002
}
  0
LINE
  5
24D
330
1F
100
AcDbEntity
  8
HIDDEN
100
AcDbLine
 10
268.125732421875
 20
-62.40000152587891
 30
0.0
 11
268.1256713867188
 21
-62.40000152587891
 31
0.0
1001
DBPROPERTIES
1002
{
1000
PbHidd
1002
}
  0
LINE
  5
24E
330
1F
100
AcDbEntity
  8
HIDDEN
100
AcDbLine
 10
268.1256713867188
 20
-62.40000152587891
 30
0.0
 11
268.1256103515625
 21
-62.40000152587891
 31
0.0
1001
DBPROPERTIES
1002
{
1000
PbHidd
1002
}
  0
LINE
  5
24F
330
1F
100
AcDbEntity
  8
HIDDEN
100
AcDbLine
 10
268.1256103515625
 20
-62.40000152587891
 30
0.0
 11
268.1255493164062
 21
-62.40000152587891
 31
0.0
1001
DBPROPERTIES
1002
{
1000
PbHidd
1002
}
  0
LINE
  5
250
330
1F
100
AcDbEntity
  8
HIDDEN
100
AcDbLine
 10
268.1255493164062
 20
-62.40000152587891
 30
0.0
 11
268.12548828125
 21
-62.40000152587891
 31
0.0
1001
DBPROPERTIES
1002
{
1000
PbHidd
1002
}
  0
LINE
  5
251
330
1F
100
AcDbEntity
  8
HIDDEN
100
AcDbLine
 10
268.12548828125
 20
-62.40000152587891
 30
0.0
 11
268.1253967285156
 21
-62.40000152587891
 31
0.0
1001
DBPROPERTIES
1002
{
1000
PbHidd
1002
}
  0
LINE
  5
252
330
1F
100
AcDbEntity
  8
HIDDEN
100
AcDbLine
 10
268.1253967285156
 20
-62.40000152587891
 30
0.0
 11
268.1253356933594
 21
-62.40000152587891
 31
0.0
1001
DBPROPERTIES
1002
{
1000
PbHidd
1002
}
  0
LINE
  5
253
330
1F
100
AcDbEntity
  8
HIDDEN
100
AcDbLine
 10
268.1253356933594
 20
-62.40000152587891
 30
0.0
 11
268.125244140625
 21
-62.40000152587891
 31
0.0
1001
DBPROPERTIES
1002
{
1000
PbHidd
1002
}
  0
LINE
  5
254
330
1F
100
AcDbEntity
  8
HIDDEN
100
AcDbLine
 10
268.125244140625
 20
-62.40000152587891
 30
0.0
 11
268.1251525878906
 21
-62.40000152587891
 31
0.0
1001
DBPROPERTIES
1002
{
1000
PbHidd
1002
}
  0
LINE
  5
255
330
1F
100
AcDbEntity
  8
HIDDEN
100
AcDbLine
 10
268.1251525878906
 20
-62.40000152587891
 30
0.0
 11
268.1250915527344
 21
-62.40000152587891
 31
0.0
1001
DBPROPERTIES
1002
{
1000
PbHidd
1002
}
  0
LINE
  5
256
330
1F
100
AcDbEntity
  8
HIDDEN
100
AcDbLine
 10
268.1250915527344
 20
-62.40000152587891
 30
0.0
 11
268.125
 21
-62.40000152587891
 31
0.0
1001
DBPROPERTIES
1002
{
1000
PbHidd
1002
}
  0
LINE
  5
257
330
1F
100
AcDbEntity
  8
HIDDEN
100
AcDbLine
 10
268.125
 20
177.0
 30
0.0
 11
268.1250915527344
 21
177.0
 31
0.0
1001
DBPROPERTIES
1002
{
1000
PbHidd
1002
}
  0
LINE
  5
258
330
1F
100
AcDbEntity
  8
HIDDEN
100
AcDbLine
 10
268.1250915527344
 20
177.0
 30
0.0
 11
268.1251525878906
 21
177.0
 31
0.0
1001
DBPROPERTIES
1002
{
1000
PbHidd
1002
}
  0
LINE
  5
259
330
1F
100
AcDbEntity
  8
HIDDEN
100
AcDbLine
 10
268.1251525878906
 20
177.0
 30
0.0
 11
268.125244140625
 21
177.0
 31
0.0
1001
DBPROPERTIES
1002
{
1000
PbHidd
1002
}
  0
LINE
  5
25A
330
1F
100
AcDbEntity
  8
HIDDEN
100
AcDbLine
 10
268.125244140625
 20
177.0
 30
0.0
 11
268.1253356933594
 21
177.0
 31
0.0
1001
DBPROPERTIES
1002
{
1000
PbHidd
1002
}
  0
LINE
  5
25B
330
1F
100
AcDbEntity
  8
HIDDEN
100
AcDbLine
 10
268.1253356933594
 20
177.0
 30
0.0
 11
268.1253967285156
 21
177.0
 31
0.0
1001
DBPROPERTIES
1002
{
1000
PbHidd
1002
}
  0
LINE
  5
25C
330
1F
100
AcDbEntity
  8
HIDDEN
100
AcDbLine
 10
268.1253967285156
 20
177.0
 30
0.0
 11
268.12548828125
 21
177.0
 31
0.0
1001
DBPROPERTIES
1002
{
1000
PbHidd
1002
}
  0
LINE
  5
25D
330
1F
100
AcDbEntity
  8
HIDDEN
100
AcDbLine
 10
268.12548828125
 20
177.0
 30
0.0
 11
268.1255493164062
 21
177.0
 31
0.0
1001
DBPROPERTIES
1002
{
1000
PbHidd
1002
}
  0
LINE
  5
25E
330
1F
100
AcDbEntity
  8
HIDDEN
100
AcDbLine
 10
268.1255493164062
 20
177.0
 30
0.0
 11
268.1256103515625
 21
177.0
 31
0.0
1001
DBPROPERTIES
1002
{
1000
PbHidd
1002
}
  0
LINE
  5
25F
330
1F
100
AcDbEntity
  8
HIDDEN
100
AcDbLine
 10
268.1256103515625
 20
177.0
 30
0.0
 11
268.1256713867188
 21
177.0
 31
0.0
1001
DBPROPERTIES
1002
{
1000
PbHidd
1002
}
  0
LINE
  5
260
330
1F
100
AcDbEntity
  8
HIDDEN
100
AcDbLine
 10
268.1256713867188
 20
177.0
 30
0.0
 11
268.125732421875
 21
177.0
 31
0.0
1001
DBPROPERTIES
1002
{
1000
PbHidd
1002
}
  0
LINE
  5
261
330
1F
100
AcDbEntity
  8
HIDDEN
100
AcDbLine
 10
268.125732421875
 20
177.0
 30
0.0
 11
268.1257934570312
 21
177.0
 31
0.0
1001
DBPROPERTIES
1002
{
1000
PbHidd
1002
}
  0
LINE
  5
262
330
1F
100
AcDbEntity
  8
HIDDEN
100
AcDbLine
 10
268.1257934570312
 20
177.0
 30
0.0
 11
268.1258239746094
 21
177.0
 31
0.0
1001
DBPROPERTIES
1002
{
1000
PbHidd
1002
}
  0
LINE
  5
263
330
1F
100
AcDbEntity
  8
HIDDEN
100
AcDbLine
 10
268.1258239746094
 20
177.0
 30
0.0
 11
268.1258850097656
 21
177.0
 31
0.0
1001
DBPROPERTIES
1002
{
1000
PbHidd
1002
}
  0
LINE
  5
264
330
1F
100
AcDbEntity
  8
HIDDEN
100
AcDbLine
 10
268.1258850097656
 20
177.0
 30
0.0
 11
268.1259155273438
 21
177.0
 31
0.0
1001
DBPROPERTIES
1002
{
1000
PbHidd
1002
}
  0
LINE
  5
265
330
1F
100
AcDbEntity
  8
HIDDEN
100
AcDbLine
 10
268.1259155273438
 20
177.0
 30
0.0
 11
268.1259460449219
 21
177.0
 31
0.0
1001
DBPROPERTIES
1002
{
1000
PbHidd
1002
}
  0
LINE
  5
266
330
1F
100
AcDbEntity
  8
HIDDEN
100
AcDbLine
 10
268.1259460449219
 20
177.0
 30
0.0
 11
268.1259765625
 21
177.0
 31
0.0
1001
DBPROPERTIES
1002
{
1000
PbHidd
1002
}
  0
LINE
  5
267
330
1F
100
AcDbEntity
  8
HIDDEN
100
AcDbLine
 10
268.1259765625
 20
177.0
 30
0.0
 11
268.1259765625
 21
177.0
 31
0.0
1001
DBPROPERTIES
1002
{
1000
PbHidd
1002
}
  0
LINE
  5
268
330
1F
100
AcDbEntity
  8
HIDDEN
100
AcDbLine
 10
268.1259765625
 20
177.0
 30
0.0
 11
268.1260070800781
 21
177.0
 31
0.0
1001
DBPROPERTIES
1002
{
1000
PbHidd
1002
}
  0
LINE
  5
269
330
1F
100
AcDbEntity
  8
HIDDEN
100
AcDbLine
 10
268.1260070800781
 20
177.0
 30
0.0
 11
268.1260070800781
 21
177.0
 31
0.0
1001
DBPROPERTIES
1002
{
1000
PbHidd
1002
}
  0
LINE
  5
26A
330
1F
100
AcDbEntity
  8
HIDDEN
100
AcDbLine
 10
268.1260070800781
 20
177.0
 30
0.0
 11
268.1260070800781
 21
177.0
 31
0.0
1001
DBPROPERTIES
1002
{
1000
PbHidd
1002
}
  0
LINE
  5
26B
330
1F
100
AcDbEntity
  8
HIDDEN
100
AcDbLine
 10
268.1260070800781
 20
177.0
 30
0.0
 11
268.1259765625
 21
177.0
 31
0.0
1001
DBPROPERTIES
1002
{
1000
PbHidd
1002
}
  0
LINE
  5
26C
330
1F
100
AcDbEntity
  8
HIDDEN
100
AcDbLine
 10
268.1259765625
 20
177.0
 30
0.0
 11
268.1259765625
 21
177.0
 31
0.0
1001
DBPROPERTIES
1002
{
1000
PbHidd
1002
}
  0
LINE
  5
26D
330
1F
100
AcDbEntity
  8
HIDDEN
100
AcDbLine
 10
268.1259765625
 20
177.0
 30
0.0
 11
268.1259460449219
 21
177.0
 31
0.0
1001
DBPROPERTIES
1002
{
1000
PbHidd
1002
}
  0
LINE
  5
26E
330
1F
100
AcDbEntity
  8
HIDDEN
100
AcDbLine
 10
268.1259460449219
 20
177.0
 30
0.0
 11
268.1259155273438
 21
177.0
 31
0.0
1001
DBPROPERTIES
1002
{
1000
PbHidd
1002
}
  0
LINE
  5
26F
330
1F
100
AcDbEntity
  8
HIDDEN
100
AcDbLine
 10
268.1259155273438
 20
177.0
 30
0.0
 11
268.1258850097656
 21
177.0
 31
0.0
1001
DBPROPERTIES
1002
{
1000
PbHidd
1002
}
  0
LINE
  5
270
330
1F
100
AcDbEntity
  8
HIDDEN
100
AcDbLine
 10
268.1258850097656
 20
177.0
 30
0.0
 11
268.1258239746094
 21
177.0
 31
0.0
1001
DBPROPERTIES
1002
{
1000
PbHidd
1002
}
  0
LINE
  5
271
330
1F
100
AcDbEntity
  8
HIDDEN
100
AcDbLine
 10
268.1258239746094
 20
177.0
 30
0.0
 11
268.1257934570312
 21
177.0
 31
0.0
1001
DBPROPERTIES
1002
{
1000
PbHidd
1002
}
  0
LINE
  5
272
330
1F
100
AcDbEntity
  8
HIDDEN
100
AcDbLine
 10
268.1257934570312
 20
177.0
 30
0.0
 11
268.125732421875
 21
177.0
 31
0.0
1001
DBPROPERTIES
1002
{
1000
PbHidd
1002
}
  0
LINE
  5
273
330
1F
100
AcDbEntity
  8
HIDDEN
100
AcDbLine
 10
268.125732421875
 20
177.0
 30
0.0
 11
268.1256713867188
 21
177.0
 31
0.0
1001
DBPROPERTIES
1002
{
1000
PbHidd
1002
}
  0
LINE
  5
274
330
1F
100
AcDbEntity
  8
HIDDEN
100
AcDbLine
 10
268.1256713867188
 20
177.0
 30
0.0
 11
268.1256103515625
 21
177.0
 31
0.0
1001
DBPROPERTIES
1002
{
1000
PbHidd
1002
}
  0
LINE
  5
275
330
1F
100
AcDbEntity
  8
HIDDEN
100
AcDbLine
 10
268.1256103515625
 20
177.0
 30
0.0
 11
268.1255493164062
 21
177.0
 31
0.0
1001
DBPROPERTIES
1002
{
1000
PbHidd
1002
}
  0
LINE
  5
276
330
1F
100
AcDbEntity
  8
HIDDEN
100
AcDbLine
 10
268.1255493164062
 20
177.0
 30
0.0
 11
268.12548828125
 21
177.0
 31
0.0
1001
DBPROPERTIES
1002
{
1000
PbHidd
1002
}
  0
LINE
  5
277
330
1F
100
AcDbEntity
  8
HIDDEN
100
AcDbLine
 10
268.12548828125
 20
177.0
 30
0.0
 11
268.1253967285156
 21
177.0
 31
0.0
1001
DBPROPERTIES
1002
{
1000
PbHidd
1002
}
  0
LINE
  5
278
330
1F
100
AcDbEntity
  8
HIDDEN
100
AcDbLine
 10
268.1253967285156
 20
177.0
 30
0.0
 11
268.1253356933594
 21
177.0
 31
0.0
1001
DBPROPERTIES
1002
{
1000
PbHidd
1002
}
  0
LINE
  5
279
330
1F
100
AcDbEntity
  8
HIDDEN
100
AcDbLine
 10
268.1253356933594
 20
177.0
 30
0.0
 11
268.125244140625
 21
177.0
 31
0.0
1001
DBPROPERTIES
1002
{
1000
PbHidd
1002
}
  0
LINE
  5
27A
330
1F
100
AcDbEntity
  8
HIDDEN
100
AcDbLine
 10
268.125244140625
 20
177.0
 30
0.0
 11
268.1251525878906
 21
177.0
 31
0.0
1001
DBPROPERTIES
1002
{
1000
PbHidd
1002
}
  0
LINE
  5
27B
330
1F
100
AcDbEntity
  8
HIDDEN
100
AcDbLine
 10
268.1251525878906
 20
177.0
 30
0.0
 11
268.1250915527344
 21
177.0
 31
0.0
1001
DBPROPERTIES
1002
{
1000
PbHidd
1002
}
  0
LINE
  5
27C
330
1F
100
AcDbEntity
  8
HIDDEN
100
AcDbLine
 10
268.1250915527344
 20
177.0
 30
0.0
 11
268.125
 21
177.0
 31
0.0
1001
DBPROPERTIES
1002
{
1000
PbHidd
1002
}
  0
LINE
  5
27D
330
1F
100
AcDbEntity
  8
HIDDEN
100
AcDbLine
 10
268.125
 20
62.40000152587891
 30
0.0
 11
268.1250915527344
 21
62.40000152587891
 31
0.0
1001
DBPROPERTIES
1002
{
1000
PbHidd
1002
}
  0
LINE
  5
27E
330
1F
100
AcDbEntity
  8
HIDDEN
100
AcDbLine
 10
268.1250915527344
 20
62.40000152587891
 30
0.0
 11
268.1251525878906
 21
62.40000152587891
 31
0.0
1001
DBPROPERTIES
1002
{
1000
PbHidd
1002
}
  0
LINE
  5
27F
330
1F
100
AcDbEntity
  8
HIDDEN
100
AcDbLine
 10
268.1251525878906
 20
62.40000152587891
 30
0.0
 11
268.125244140625
 21
62.40000152587891
 31
0.0
1001
DBPROPERTIES
1002
{
1000
PbHidd
1002
}
  0
LINE
  5
280
330
1F
100
AcDbEntity
  8
HIDDEN
100
AcDbLine
 10
268.125244140625
 20
62.40000152587891
 30
0.0
 11
268.1253356933594
 21
62.40000152587891
 31
0.0
1001
DBPROPERTIES
1002
{
1000
PbHidd
1002
}
  0
LINE
  5
281
330
1F
100
AcDbEntity
  8
HIDDEN
100
AcDbLine
 10
268.1253356933594
 20
62.40000152587891
 30
0.0
 11
268.1253967285156
 21
62.40000152587891
 31
0.0
1001
DBPROPERTIES
1002
{
1000
PbHidd
1002
}
  0
LINE
  5
282
330
1F
100
AcDbEntity
  8
HIDDEN
100
AcDbLine
 10
268.1253967285156
 20
62.40000152587891
 30
0.0
 11
268.12548828125
 21
62.40000152587891
 31
0.0
1001
DBPROPERTIES
1002
{
1000
PbHidd
1002
}
  0
LINE
  5
283
330
1F
100
AcDbEntity
  8
HIDDEN
100
AcDbLine
 10
268.12548828125
 20
62.40000152587891
 30
0.0
 11
268.1255493164062
 21
62.40000152587891
 31
0.0
1001
DBPROPERTIES
1002
{
1000
PbHidd
1002
}
  0
LINE
  5
284
330
1F
100
AcDbEntity
  8
HIDDEN
100
AcDbLine
 10
268.1255493164062
 20
62.40000152587891
 30
0.0
 11
268.1256103515625
 21
62.40000152587891
 31
0.0
1001
DBPROPERTIES
1002
{
1000
PbHidd
1002
}
  0
LINE
  5
285
330
1F
100
AcDbEntity
  8
HIDDEN
100
AcDbLine
 10
268.1256103515625
 20
62.40000152587891
 30
0.0
 11
268.1256713867188
 21
62.40000152587891
 31
0.0
1001
DBPROPERTIES
1002
{
1000
PbHidd
1002
}
  0
LINE
  5
286
330
1F
100
AcDbEntity
  8
HIDDEN
100
AcDbLine
 10
268.1256713867188
 20
62.40000152587891
 30
0.0
 11
268.125732421875
 21
62.40000152587891
 31
0.0
1001
DBPROPERTIES
1002
{
1000
PbHidd
1002
}
  0
LINE
  5
287
330
1F
100
AcDbEntity
  8
HIDDEN
100
AcDbLine
 10
268.125732421875
 20
62.40000152587891
 30
0.0
 11
268.1257934570312
 21
62.40000152587891
 31
0.0
1001
DBPROPERTIES
1002
{
1000
PbHidd
1002
}
  0
LINE
  5
288
330
1F
100
AcDbEntity
  8
HIDDEN
100
AcDbLine
 10
268.1257934570312
 20
62.40000152587891
 30
0.0
 11
268.1258239746094
 21
62.40000152587891
 31
0.0
1001
DBPROPERTIES
1002
{
1000
PbHidd
1002
}
  0
LINE
  5
289
330
1F
100
AcDbEntity
  8
HIDDEN
100
AcDbLine
 10
268.1258239746094
 20
62.40000152587891
 30
0.0
 11
268.1258850097656
 21
62.40000152587891
 31
0.0
1001
DBPROPERTIES
1002
{
1000
PbHidd
1002
}
  0
LINE
  5
28A
330
1F
100
AcDbEntity
  8
HIDDEN
100
AcDbLine
 10
268.1258850097656
 20
62.40000152587891
 30
0.0
 11
268.1259155273438
 21
62.40000152587891
 31
0.0
1001
DBPROPERTIES
1002
{
1000
PbHidd
1002
}
  0
LINE
  5
28B
330
1F
100
AcDbEntity
  8
HIDDEN
100
AcDbLine
 10
268.1259155273438
 20
62.40000152587891
 30
0.0
 11
268.1259460449219
 21
62.40000152587891
 31
0.0
1001
DBPROPERTIES
1002
{
1000
PbHidd
1002
}
  0
LINE
  5
28C
330
1F
100
AcDbEntity
  8
HIDDEN
100
AcDbLine
 10
268.1259460449219
 20
62.40000152587891
 30
0.0
 11
268.1259765625
 21
62.40000152587891
 31
0.0
1001
DBPROPERTIES
1002
{
1000
PbHidd
1002
}
  0
LINE
  5
28D
330
1F
100
AcDbEntity
  8
HIDDEN
100
AcDbLine
 10
268.1259765625
 20
62.40000152587891
 30
0.0
 11
268.1259765625
 21
62.40000152587891
 31
0.0
1001
DBPROPERTIES
1002
{
1000
PbHidd
1002
}
  0
LINE
  5
28E
330
1F
100
AcDbEntity
  8
HIDDEN
100
AcDbLine
 10
268.1259765625
 20
62.40000152587891
 30
0.0
 11
268.1260070800781
 21
62.40000152587891
 31
0.0
1001
DBPROPERTIES
1002
{
1000
PbHidd
1002
}
  0
LINE
  5
28F
330
1F
100
AcDbEntity
  8
HIDDEN
100
AcDbLine
 10
268.1260070800781
 20
62.40000152587891
 30
0.0
 11
268.1260070800781
 21
62.40000152587891
 31
0.0
1001
DBPROPERTIES
1002
{
1000
PbHidd
1002
}
  0
LINE
  5
290
330
1F
100
AcDbEntity
  8
HIDDEN
100
AcDbLine
 10
268.1260070800781
 20
62.40000152587891
 30
0.0
 11
268.1260070800781
 21
62.40000152587891
 31
0.0
1001
DBPROPERTIES
1002
{
1000
PbHidd
1002
}
  0
LINE
  5
291
330
1F
100
AcDbEntity
  8
HIDDEN
100
AcDbLine
 10
268.1260070800781
 20
62.40000152587891
 30
0.0
 11
268.1259765625
 21
62.40000152587891
 31
0.0
1001
DBPROPERTIES
1002
{
1000
PbHidd
1002
}
  0
LINE
  5
292
330
1F
100
AcDbEntity
  8
HIDDEN
100
AcDbLine
 10
268.1259765625
 20
62.40000152587891
 30
0.0
 11
268.1259765625
 21
62.40000152587891
 31
0.0
1001
DBPROPERTIES
1002
{
1000
PbHidd
1002
}
  0
LINE
  5
293
330
1F
100
AcDbEntity
  8
HIDDEN
100
AcDbLine
 10
268.1259765625
 20
62.40000152587891
 30
0.0
 11
268.1259460449219
 21
62.40000152587891
 31
0.0
1001
DBPROPERTIES
1002
{
1000
PbHidd
1002
}
  0
LINE
  5
294
330
1F
100
AcDbEntity
  8
HIDDEN
100
AcDbLine
 10
268.1259460449219
 20
62.40000152587891
 30
0.0
 11
268.1259155273438
 21
62.40000152587891
 31
0.0
1001
DBPROPERTIES
1002
{
1000
PbHidd
1002
}
  0
LINE
  5
295
330
1F
100
AcDbEntity
  8
HIDDEN
100
AcDbLine
 10
268.1259155273438
 20
62.40000152587891
 30
0.0
 11
268.1258850097656
 21
62.40000152587891
 31
0.0
1001
DBPROPERTIES
1002
{
1000
PbHidd
1002
}
  0
LINE
  5
296
330
1F
100
AcDbEntity
  8
HIDDEN
100
AcDbLine
 10
268.1258850097656
 20
62.40000152587891
 30
0.0
 11
268.1258239746094
 21
62.40000152587891
 31
0.0
1001
DBPROPERTIES
1002
{
1000
PbHidd
1002
}
  0
LINE
  5
297
330
1F
100
AcDbEntity
  8
HIDDEN
100
AcDbLine
 10
268.1258239746094
 20
62.40000152587891
 30
0.0
 11
268.1257934570312
 21
62.40000152587891
 31
0.0
1001
DBPROPERTIES
1002
{
1000
PbHidd
1002
}
  0
LINE
  5
298
330
1F
100
AcDbEntity
  8
HIDDEN
100
AcDbLine
 10
268.1257934570312
 20
62.40000152587891
 30
0.0
 11
268.125732421875
 21
62.40000152587891
 31
0.0
1001
DBPROPERTIES
1002
{
1000
PbHidd
1002
}
  0
LINE
  5
299
330
1F
100
AcDbEntity
  8
HIDDEN
100
AcDbLine
 10
268.125732421875
 20
62.40000152587891
 30
0.0
 11
268.1256713867188
 21
62.40000152587891
 31
0.0
1001
DBPROPERTIES
1002
{
1000
PbHidd
1002
}
  0
LINE
  5
29A
330
1F
100
AcDbEntity
  8
HIDDEN
100
AcDbLine
 10
268.1256713867188
 20
62.40000152587891
 30
0.0
 11
268.1256103515625
 21
62.40000152587891
 31
0.0
1001
DBPROPERTIES
1002
{
1000
PbHidd
1002
}
  0
LINE
  5
29B
330
1F
100
AcDbEntity
  8
HIDDEN
100
AcDbLine
 10
268.1256103515625
 20
62.40000152587891
 30
0.0
 11
268.1255493164062
 21
62.40000152587891
 31
0.0
1001
DBPROPERTIES
1002
{
1000
PbHidd
1002
}
  0
LINE
  5
29C
330
1F
100
AcDbEntity
  8
HIDDEN
100
AcDbLine
 10
268.1255493164062
 20
62.40000152587891
 30
0.0
 11
268.12548828125
 21
62.40000152587891
 31
0.0
1001
DBPROPERTIES
1002
{
1000
PbHidd
1002
}
  0
LINE
  5
29D
330
1F
100
AcDbEntity
  8
HIDDEN
100
AcDbLine
 10
268.12548828125
 20
62.40000152587891
 30
0.0
 11
268.1253967285156
 21
62.40000152587891
 31
0.0
1001
DBPROPERTIES
1002
{
1000
PbHidd
1002
}
  0
LINE
  5
29E
330
1F
100
AcDbEntity
  8
HIDDEN
100
AcDbLine
 10
268.1253967285156
 20
62.40000152587891
 30
0.0
 11
268.1253356933594
 21
62.40000152587891
 31
0.0
1001
DBPROPERTIES
1002
{
1000
PbHidd
1002
}
  0
LINE
  5
29F
330
1F
100
AcDbEntity
  8
HIDDEN
100
AcDbLine
 10
268.1253356933594
 20
62.40000152587891
 30
0.0
 11
268.125244140625
 21
62.40000152587891
 31
0.0
1001
DBPROPERTIES
1002
{
1000
PbHidd
1002
}
  0
LINE
  5
2A0
330
1F
100
AcDbEntity
  8
HIDDEN
100
AcDbLine
 10
268.125244140625
 20
62.40000152587891
 30
0.0
 11
268.1251525878906
 21
62.40000152587891
 31
0.0
1001
DBPROPERTIES
1002
{
1000
PbHidd
1002
}
  0
LINE
  5
2A1
330
1F
100
AcDbEntity
  8
HIDDEN
100
AcDbLine
 10
268.1251525878906
 20
62.40000152587891
 30
0.0
 11
268.1250915527344
 21
62.40000152587891
 31
0.0
1001
DBPROPERTIES
1002
{
1000
PbHidd
1002
}
  0
LINE
  5
2A2
330
1F
100
AcDbEntity
  8
HIDDEN
100
AcDbLine
 10
268.1250915527344
 20
62.40000152587891
 30
0.0
 11
268.125
 21
62.40000152587891
 31
0.0
1001
DBPROPERTIES
1002
{
1000
PbHidd
1002
}
  0
LINE
  5
2A3
330
1F
100
AcDbEntity
  8
HIDDEN
100
AcDbLine
 10
268.125
 20
62.40000152587891
 30
0.0
 11
268.1249084472656
 21
62.40000152587891
 31
0.0
1001
DBPROPERTIES
1002
{
1000
PbHidd
1002
}
  0
LINE
  5
2A4
330
1F
100
AcDbEntity
  8
HIDDEN
100
AcDbLine
 10
268.1249084472656
 20
62.40000152587891
 30
0.0
 11
268.1248474121094
 21
62.40000152587891
 31
0.0
1001
DBPROPERTIES
1002
{
1000
PbHidd
1002
}
  0
LINE
  5
2A5
330
1F
100
AcDbEntity
  8
HIDDEN
100
AcDbLine
 10
268.1248474121094
 20
62.40000152587891
 30
0.0
 11
268.124755859375
 21
62.40000152587891
 31
0.0
1001
DBPROPERTIES
1002
{
1000
PbHidd
1002
}
  0
LINE
  5
2A6
330
1F
100
AcDbEntity
  8
HIDDEN
100
AcDbLine
 10
268.124755859375
 20
62.40000152587891
 30
0.0
 11
268.1246643066406
 21
62.40000152587891
 31
0.0
1001
DBPROPERTIES
1002
{
1000
PbHidd
1002
}
  0
LINE
  5
2A7
330
1F
100
AcDbEntity
  8
HIDDEN
100
AcDbLine
 10
268.1246643066406
 20
62.40000152587891
 30
0.0
 11
268.1246032714844
 21
62.40000152587891
 31
0.0
1001
DBPROPERTIES
1002
{
1000
PbHidd
1002
}
  0
LINE
  5
2A8
330
1F
100
AcDbEntity
  8
HIDDEN
100
AcDbLine
 10
268.1246032714844
 20
62.40000152587891
 30
0.0
 11
268.12451171875
 21
62.40000152587891
 31
0.0
1001
DBPROPERTIES
1002
{
1000
PbHidd
1002
}
  0
LINE
  5
2A9
330
1F
100
AcDbEntity
  8
HIDDEN
100
AcDbLine
 10
268.12451171875
 20
62.40000152587891
 30
0.0
 11
268.1244506835938
 21
62.40000152587891
 31
0.0
1001
DBPROPERTIES
1002
{
1000
PbHidd
1002
}
  0
LINE
  5
2AA
330
1F
100
AcDbEntity
  8
HIDDEN
100
AcDbLine
 10
268.1244506835938
 20
62.40000152587891
 30
0.0
 11
268.1243896484375
 21
62.40000152587891
 31
0.0
1001
DBPROPERTIES
1002
{
1000
PbHidd
1002
}
  0
LINE
  5
2AB
330
1F
100
AcDbEntity
  8
HIDDEN
100
AcDbLine
 10
268.1243896484375
 20
62.40000152587891
 30
0.0
 11
268.1243286132812
 21
62.40000152587891
 31
0.0
1001
DBPROPERTIES
1002
{
1000
PbHidd
1002
}
  0
LINE
  5
2AC
330
1F
100
AcDbEntity
  8
HIDDEN
100
AcDbLine
 10
268.1243286132812
 20
62.40000152587891
 30
0.0
 11
268.124267578125
 21
62.40000152587891
 31
0.0
1001
DBPROPERTIES
1002
{
1000
PbHidd
1002
}
  0
LINE
  5
2AD
330
1F
100
AcDbEntity
  8
HIDDEN
100
AcDbLine
 10
268.124267578125
 20
62.40000152587891
 30
0.0
 11
268.1242065429688
 21
62.40000152587891
 31
0.0
1001
DBPROPERTIES
1002
{
1000
PbHidd
1002
}
  0
LINE
  5
2AE
330
1F
100
AcDbEntity
  8
HIDDEN
100
AcDbLine
 10
268.1242065429688
 20
62.40000152587891
 30
0.0
 11
268.1241760253906
 21
62.40000152587891
 31
0.0
1001
DBPROPERTIES
1002
{
1000
PbHidd
1002
}
  0
LINE
  5
2AF
330
1F
100
AcDbEntity
  8
HIDDEN
100
AcDbLine
 10
268.1241760253906
 20
62.40000152587891
 30
0.0
 11
268.1241149902344
 21
62.40000152587891
 31
0.0
1001
DBPROPERTIES
1002
{
1000
PbHidd
1002
}
  0
LINE
  5
2B0
330
1F
100
AcDbEntity
  8
HIDDEN
100
AcDbLine
 10
268.1241149902344
 20
62.40000152587891
 30
0.0
 11
268.1240844726562
 21
62.40000152587891
 31
0.0
1001
DBPROPERTIES
1002
{
1000
PbHidd
1002
}
  0
LINE
  5
2B1
330
1F
100
AcDbEntity
  8
HIDDEN
100
AcDbLine
 10
268.1240844726562
 20
62.40000152587891
 30
0.0
 11
268.1240539550781
 21
62.40000152587891
 31
0.0
1001
DBPROPERTIES
1002
{
1000
PbHidd
1002
}
  0
LINE
  5
2B2
330
1F
100
AcDbEntity
  8
HIDDEN
100
AcDbLine
 10
268.1240539550781
 20
62.40000152587891
 30
0.0
 11
268.1240234375
 21
62.40000152587891
 31
0.0
1001
DBPROPERTIES
1002
{
1000
PbHidd
1002
}
  0
LINE
  5
2B3
330
1F
100
AcDbEntity
  8
HIDDEN
100
AcDbLine
 10
268.1240234375
 20
62.40000152587891
 30
0.0
 11
268.1240234375
 21
62.40000152587891
 31
0.0
1001
DBPROPERTIES
1002
{
1000
PbHidd
1002
}
  0
LINE
  5
2B4
330
1F
100
AcDbEntity
  8
HIDDEN
100
AcDbLine
 10
268.1240234375
 20
62.40000152587891
 30
0.0
 11
268.1239929199219
 21
62.40000152587891
 31
0.0
1001
DBPROPERTIES
1002
{
1000
PbHidd
1002
}
  0
LINE
  5
2B5
330
1F
100
AcDbEntity
  8
HIDDEN
100
AcDbLine
 10
268.1239929199219
 20
62.40000152587891
 30
0.0
 11
268.1239929199219
 21
62.40000152587891
 31
0.0
1001
DBPROPERTIES
1002
{
1000
PbHidd
1002
}
  0
LINE
  5
2B6
330
1F
100
AcDbEntity
  8
HIDDEN
100
AcDbLine
 10
268.1239929199219
 20
62.40000152587891
 30
0.0
 11
268.1239929199219
 21
62.40000152587891
 31
0.0
1001
DBPROPERTIES
1002
{
1000
PbHidd
1002
}
  0
LINE
  5
2B7
330
1F
100
AcDbEntity
  8
HIDDEN
100
AcDbLine
 10
268.1239929199219
 20
62.40000152587891
 30
0.0
 11
268.1240234375
 21
62.40000152587891
 31
0.0
1001
DBPROPERTIES
1002
{
1000
PbHidd
1002
}
  0
LINE
  5
2B8
330
1F
100
AcDbEntity
  8
HIDDEN
100
AcDbLine
 10
268.1240234375
 20
62.40000152587891
 30
0.0
 11
268.1240234375
 21
62.40000152587891
 31
0.0
1001
DBPROPERTIES
1002
{
1000
PbHidd
1002
}
  0
LINE
  5
2B9
330
1F
100
AcDbEntity
  8
HIDDEN
100
AcDbLine
 10
268.1240234375
 20
62.40000152587891
 30
0.0
 11
268.1240539550781
 21
62.40000152587891
 31
0.0
1001
DBPROPERTIES
1002
{
1000
PbHidd
1002
}
  0
LINE
  5
2BA
330
1F
100
AcDbEntity
  8
HIDDEN
100
AcDbLine
 10
268.1240539550781
 20
62.40000152587891
 30
0.0
 11
268.1240844726562
 21
62.40000152587891
 31
0.0
1001
DBPROPERTIES
1002
{
1000
PbHidd
1002
}
  0
LINE
  5
2BB
330
1F
100
AcDbEntity
  8
HIDDEN
100
AcDbLine
 10
268.1240844726562
 20
62.40000152587891
 30
0.0
 11
268.1241149902344
 21
62.40000152587891
 31
0.0
1001
DBPROPERTIES
1002
{
1000
PbHidd
1002
}
  0
LINE
  5
2BC
330
1F
100
AcDbEntity
  8
HIDDEN
100
AcDbLine
 10
268.1241149902344
 20
62.40000152587891
 30
0.0
 11
268.1241760253906
 21
62.40000152587891
 31
0.0
1001
DBPROPERTIES
1002
{
1000
PbHidd
1002
}
  0
LINE
  5
2BD
330
1F
100
AcDbEntity
  8
HIDDEN
100
AcDbLine
 10
268.1241760253906
 20
62.40000152587891
 30
0.0
 11
268.1242065429688
 21
62.40000152587891
 31
0.0
1001
DBPROPERTIES
1002
{
1000
PbHidd
1002
}
  0
LINE
  5
2BE
330
1F
100
AcDbEntity
  8
HIDDEN
100
AcDbLine
 10
268.1242065429688
 20
62.40000152587891
 30
0.0
 11
268.124267578125
 21
62.40000152587891
 31
0.0
1001
DBPROPERTIES
1002
{
1000
PbHidd
1002
}
  0
LINE
  5
2BF
330
1F
100
AcDbEntity
  8
HIDDEN
100
AcDbLine
 10
268.124267578125
 20
62.40000152587891
 30
0.0
 11
268.1243286132812
 21
62.40000152587891
 31
0.0
1001
DBPROPERTIES
1002
{
1000
PbHidd
1002
}
  0
LINE
  5
2C0
330
1F
100
AcDbEntity
  8
HIDDEN
100
AcDbLine
 10
268.1243286132812
 20
62.40000152587891
 30
0.0
 11
268.1243896484375
 21
62.40000152587891
 31
0.0
1001
DBPROPERTIES
1002
{
1000
PbHidd
1002
}
  0
LINE
  5
2C1
330
1F
100
AcDbEntity
  8
HIDDEN
100
AcDbLine
 10
268.1243896484375
 20
62.40000152587891
 30
0.0
 11
268.1244506835938
 21
62.40000152587891
 31
0.0
1001
DBPROPERTIES
1002
{
1000
PbHidd
1002
}
  0
LINE
  5
2C2
330
1F
100
AcDbEntity
  8
HIDDEN
100
AcDbLine
 10
268.1244506835938
 20
62.40000152587891
 30
0.0
 11
268.12451171875
 21
62.40000152587891
 31
0.0
1001
DBPROPERTIES
1002
{
1000
PbHidd
1002
}
  0
LINE
  5
2C3
330
1F
100
AcDbEntity
  8
HIDDEN
100
AcDbLine
 10
268.12451171875
 20
62.40000152587891
 30
0.0
 11
268.1246032714844
 21
62.40000152587891
 31
0.0
1001
DBPROPERTIES
1002
{
1000
PbHidd
1002
}
  0
LINE
  5
2C4
330
1F
100
AcDbEntity
  8
HIDDEN
100
AcDbLine
 10
268.1246032714844
 20
62.40000152587891
 30
0.0
 11
268.1246643066406
 21
62.40000152587891
 31
0.0
1001
DBPROPERTIES
1002
{
1000
PbHidd
1002
}
  0
LINE
  5
2C5
330
1F
100
AcDbEntity
  8
HIDDEN
100
AcDbLine
 10
268.1246643066406
 20
62.40000152587891
 30
0.0
 11
268.124755859375
 21
62.40000152587891
 31
0.0
1001
DBPROPERTIES
1002
{
1000
PbHidd
1002
}
  0
LINE
  5
2C6
330
1F
100
AcDbEntity
  8
HIDDEN
100
AcDbLine
 10
268.124755859375
 20
62.40000152587891
 30
0.0
 11
268.1248474121094
 21
62.40000152587891
 31
0.0
1001
DBPROPERTIES
1002
{
1000
PbHidd
1002
}
  0
LINE
  5
2C7
330
1F
100
AcDbEntity
  8
HIDDEN
100
AcDbLine
 10
268.1248474121094
 20
62.40000152587891
 30
0.0
 11
268.1249084472656
 21
62.40000152587891
 31
0.0
1001
DBPROPERTIES
1002
{
1000
PbHidd
1002
}
  0
LINE
  5
2C8
330
1F
100
AcDbEntity
  8
HIDDEN
100
AcDbLine
 10
268.1249084472656
 20
62.40000152587891
 30
0.0
 11
268.125
 21
62.40000152587891
 31
0.0
1001
DBPROPERTIES
1002
{
1000
PbHidd
1002
}
  0
LINE
  5
2C9
330
1F
100
AcDbEntity
  8
HIDDEN
100
AcDbLine
 10
268.125
 20
177.0
 30
0.0
 11
268.1249084472656
 21
177.0
 31
0.0
1001
DBPROPERTIES
1002
{
1000
PbHidd
1002
}
  0
LINE
  5
2CA
330
1F
100
AcDbEntity
  8
HIDDEN
100
AcDbLine
 10
268.1249084472656
 20
177.0
 30
0.0
 11
268.1248474121094
 21
177.0
 31
0.0
1001
DBPROPERTIES
1002
{
1000
PbHidd
1002
}
  0
LINE
  5
2CB
330
1F
100
AcDbEntity
  8
HIDDEN
100
AcDbLine
 10
268.1248474121094
 20
177.0
 30
0.0
 11
268.124755859375
 21
177.0
 31
0.0
1001
DBPROPERTIES
1002
{
1000
PbHidd
1002
}
  0
LINE
  5
2CC
330
1F
100
AcDbEntity
  8
HIDDEN
100
AcDbLine
 10
268.124755859375
 20
177.0
 30
0.0
 11
268.1246643066406
 21
177.0
 31
0.0
1001
DBPROPERTIES
1002
{
1000
PbHidd
1002
}
  0
LINE
  5
2CD
330
1F
100
AcDbEntity
  8
HIDDEN
100
AcDbLine
 10
268.1246643066406
 20
177.0
 30
0.0
 11
268.1246032714844
 21
177.0
 31
0.0
1001
DBPROPERTIES
1002
{
1000
PbHidd
1002
}
  0
LINE
  5
2CE
330
1F
100
AcDbEntity
  8
HIDDEN
100
AcDbLine
 10
268.1246032714844
 20
177.0
 30
0.0
 11
268.12451171875
 21
177.0
 31
0.0
1001
DBPROPERTIES
1002
{
1000
PbHidd
1002
}
  0
LINE
  5
2CF
330
1F
100
AcDbEntity
  8
HIDDEN
100
AcDbLine
 10
268.12451171875
 20
177.0
 30
0.0
 11
268.1244506835938
 21
177.0
 31
0.0
1001
DBPROPERTIES
1002
{
1000
PbHidd
1002
}
  0
LINE
  5
2D0
330
1F
100
AcDbEntity
  8
HIDDEN
100
AcDbLine
 10
268.1244506835938
 20
177.0
 30
0.0
 11
268.1243896484375
 21
177.0
 31
0.0
1001
DBPROPERTIES
1002
{
1000
PbHidd
1002
}
  0
LINE
  5
2D1
330
1F
100
AcDbEntity
  8
HIDDEN
100
AcDbLine
 10
268.1243896484375
 20
177.0
 30
0.0
 11
268.1243286132812
 21
177.0
 31
0.0
1001
DBPROPERTIES
1002
{
1000
PbHidd
1002
}
  0
LINE
  5
2D2
330
1F
100
AcDbEntity
  8
HIDDEN
100
AcDbLine
 10
268.1243286132812
 20
177.0
 30
0.0
 11
268.124267578125
 21
177.0
 31
0.0
1001
DBPROPERTIES
1002
{
1000
PbHidd
1002
}
  0
LINE
  5
2D3
330
1F
100
AcDbEntity
  8
HIDDEN
100
AcDbLine
 10
268.124267578125
 20
177.0
 30
0.0
 11
268.1242065429688
 21
177.0
 31
0.0
1001
DBPROPERTIES
1002
{
1000
PbHidd
1002
}
  0
LINE
  5
2D4
330
1F
100
AcDbEntity
  8
HIDDEN
100
AcDbLine
 10
268.1242065429688
 20
177.0
 30
0.0
 11
268.1241760253906
 21
177.0
 31
0.0
1001
DBPROPERTIES
1002
{
1000
PbHidd
1002
}
  0
LINE
  5
2D5
330
1F
100
AcDbEntity
  8
HIDDEN
100
AcDbLine
 10
268.1241760253906
 20
177.0
 30
0.0
 11
268.1241149902344
 21
177.0
 31
0.0
1001
DBPROPERTIES
1002
{
1000
PbHidd
1002
}
  0
LINE
  5
2D6
330
1F
100
AcDbEntity
  8
HIDDEN
100
AcDbLine
 10
268.1241149902344
 20
177.0
 30
0.0
 11
268.1240844726562
 21
177.0
 31
0.0
1001
DBPROPERTIES
1002
{
1000
PbHidd
1002
}
  0
LINE
  5
2D7
330
1F
100
AcDbEntity
  8
HIDDEN
100
AcDbLine
 10
268.1240844726562
 20
177.0
 30
0.0
 11
268.1240539550781
 21
177.0
 31
0.0
1001
DBPROPERTIES
1002
{
1000
PbHidd
1002
}
  0
LINE
  5
2D8
330
1F
100
AcDbEntity
  8
HIDDEN
100
AcDbLine
 10
268.1240539550781
 20
177.0
 30
0.0
 11
268.1240234375
 21
177.0
 31
0.0
1001
DBPROPERTIES
1002
{
1000
PbHidd
1002
}
  0
LINE
  5
2D9
330
1F
100
AcDbEntity
  8
HIDDEN
100
AcDbLine
 10
268.1240234375
 20
177.0
 30
0.0
 11
268.1240234375
 21
177.0
 31
0.0
1001
DBPROPERTIES
1002
{
1000
PbHidd
1002
}
  0
LINE
  5
2DA
330
1F
100
AcDbEntity
  8
HIDDEN
100
AcDbLine
 10
268.1240234375
 20
177.0
 30
0.0
 11
268.1239929199219
 21
177.0
 31
0.0
1001
DBPROPERTIES
1002
{
1000
PbHidd
1002
}
  0
LINE
  5
2DB
330
1F
100
AcDbEntity
  8
HIDDEN
100
AcDbLine
 10
268.1239929199219
 20
177.0
 30
0.0
 11
268.1239929199219
 21
177.0
 31
0.0
1001
DBPROPERTIES
1002
{
1000
PbHidd
1002
}
  0
LINE
  5
2DC
330
1F
100
AcDbEntity
  8
HIDDEN
100
AcDbLine
 10
268.1239929199219
 20
177.0
 30
0.0
 11
268.1239929199219
 21
177.0
 31
0.0
1001
DBPROPERTIES
1002
{
1000
PbHidd
1002
}
  0
LINE
  5
2DD
330
1F
100
AcDbEntity
  8
HIDDEN
100
AcDbLine
 10
268.1239929199219
 20
177.0
 30
0.0
 11
268.1240234375
 21
177.0
 31
0.0
1001
DBPROPERTIES
1002
{
1000
PbHidd
1002
}
  0
LINE
  5
2DE
330
1F
100
AcDbEntity
  8
HIDDEN
100
AcDbLine
 10
268.1240234375
 20
177.0
 30
0.0
 11
268.1240234375
 21
177.0
 31
0.0
1001
DBPROPERTIES
1002
{
1000
PbHidd
1002
}
  0
LINE
  5
2DF
330
1F
100
AcDbEntity
  8
HIDDEN
100
AcDbLine
 10
268.1240234375
 20
177.0
 30
0.0
 11
268.1240539550781
 21
177.0
 31
0.0
1001
DBPROPERTIES
1002
{
1000
PbHidd
1002
}
  0
LINE
  5
2E0
330
1F
100
AcDbEntity
  8
HIDDEN
100
AcDbLine
 10
268.1240539550781
 20
177.0
 30
0.0
 11
268.1240844726562
 21
177.0
 31
0.0
1001
DBPROPERTIES
1002
{
1000
PbHidd
1002
}
  0
LINE
  5
2E1
330
1F
100
AcDbEntity
  8
HIDDEN
100
AcDbLine
 10
268.1240844726562
 20
177.0
 30
0.0
 11
268.1241149902344
 21
177.0
 31
0.0
1001
DBPROPERTIES
1002
{
1000
PbHidd
1002
}
  0
LINE
  5
2E2
330
1F
100
AcDbEntity
  8
HIDDEN
100
AcDbLine
 10
268.1241149902344
 20
177.0
 30
0.0
 11
268.1241760253906
 21
177.0
 31
0.0
1001
DBPROPERTIES
1002
{
1000
PbHidd
1002
}
  0
LINE
  5
2E3
330
1F
100
AcDbEntity
  8
HIDDEN
100
AcDbLine
 10
268.1241760253906
 20
177.0
 30
0.0
 11
268.1242065429688
 21
177.0
 31
0.0
1001
DBPROPERTIES
1002
{
1000
PbHidd
1002
}
  0
LINE
  5
2E4
330
1F
100
AcDbEntity
  8
HIDDEN
100
AcDbLine
 10
268.1242065429688
 20
177.0
 30
0.0
 11
268.124267578125
 21
177.0
 31
0.0
1001
DBPROPERTIES
1002
{
1000
PbHidd
1002
}
  0
LINE
  5
2E5
330
1F
100
AcDbEntity
  8
HIDDEN
100
AcDbLine
 10
268.124267578125
 20
177.0
 30
0.0
 11
268.1243286132812
 21
177.0
 31
0.0
1001
DBPROPERTIES
1002
{
1000
PbHidd
1002
}
  0
LINE
  5
2E6
330
1F
100
AcDbEntity
  8
HIDDEN
100
AcDbLine
 10
268.1243286132812
 20
177.0
 30
0.0
 11
268.1243896484375
 21
177.0
 31
0.0
1001
DBPROPERTIES
1002
{
1000
PbHidd
1002
}
  0
LINE
  5
2E7
330
1F
100
AcDbEntity
  8
HIDDEN
100
AcDbLine
 10
268.1243896484375
 20
177.0
 30
0.0
 11
268.1244506835938
 21
177.0
 31
0.0
1001
DBPROPERTIES
1002
{
1000
PbHidd
1002
}
  0
LINE
  5
2E8
330
1F
100
AcDbEntity
  8
HIDDEN
100
AcDbLine
 10
268.1244506835938
 20
177.0
 30
0.0
 11
268.12451171875
 21
177.0
 31
0.0
1001
DBPROPERTIES
1002
{
1000
PbHidd
1002
}
  0
LINE
  5
2E9
330
1F
100
AcDbEntity
  8
HIDDEN
100
AcDbLine
 10
268.12451171875
 20
177.0
 30
0.0
 11
268.1246032714844
 21
177.0
 31
0.0
1001
DBPROPERTIES
1002
{
1000
PbHidd
1002
}
  0
LINE
  5
2EA
330
1F
100
AcDbEntity
  8
HIDDEN
100
AcDbLine
 10
268.1246032714844
 20
177.0
 30
0.0
 11
268.1246643066406
 21
177.0
 31
0.0
1001
DBPROPERTIES
1002
{
1000
PbHidd
1002
}
  0
LINE
  5
2EB
330
1F
100
AcDbEntity
  8
HIDDEN
100
AcDbLine
 10
268.1246643066406
 20
177.0
 30
0.0
 11
268.124755859375
 21
177.0
 31
0.0
1001
DBPROPERTIES
1002
{
1000
PbHidd
1002
}
  0
LINE
  5
2EC
330
1F
100
AcDbEntity
  8
HIDDEN
100
AcDbLine
 10
268.124755859375
 20
177.0
 30
0.0
 11
268.1248474121094
 21
177.0
 31
0.0
1001
DBPROPERTIES
1002
{
1000
PbHidd
1002
}
  0
LINE
  5
2ED
330
1F
100
AcDbEntity
  8
HIDDEN
100
AcDbLine
 10
268.1248474121094
 20
177.0
 30
0.0
 11
268.1249084472656
 21
177.0
 31
0.0
1001
DBPROPERTIES
1002
{
1000
PbHidd
1002
}
  0
LINE
  5
2EE
330
1F
100
AcDbEntity
  8
HIDDEN
100
AcDbLine
 10
268.1249084472656
 20
177.0
 30
0.0
 11
268.125
 21
177.0
 31
0.0
1001
DBPROPERTIES
1002
{
1000
PbHidd
1002
}
  0
LINE
  5
2EF
330
1F
100
AcDbEntity
  8
HIDDEN
100
AcDbLine
 10
247.5
 20
0.0
 30
0.0
 11
247.5
 21
62.40000000000001
 31
0.0
1001
DBPROPERTIES
1002
{
1000
PbHidd
1002
}
  0
LINE
  5
2F0
330
1F
100
AcDbEntity
  8
HIDDEN
100
AcDbLine
 10
330.0
 20
0.0
 30
0.0
 11
330.0
 21
12.55099759064226
 31
0.0
1001
DBPROPERTIES
1002
{
1000
PbHidd
1002
}
  0
ELLIPSE
  5
2F1
330
1F
100
AcDbEntity
  8
HIDDEN
100
AcDbEllipse
 10
348.1528640450004
 20
0.0
 30
0.0
 11
-44.90826952089532
 21
62.23866524676149
 31
0.0
210
0.0
220
0.0
230
1.0
 40
0.0998536717081515
 41
1.173471868185028
 42
1.296351955809729
1001
DBPROPERTIES
1002
{
1000
PbHidd
1002
}
  0
LINE
  5
2F2
330
1F
100
AcDbEntity
  8
HIDDEN
100
AcDbLine
 10
325.0448608398438
 20
19.94848442077637
 30
0.0
 11
325.2838439941406
 21
20.21322250366211
 31
0.0
1001
DBPROPERTIES
1002
{
1000
PbHidd
1002
}
  0
LINE
  5
2F3
330
1F
100
AcDbEntity
  8
HIDDEN
100
AcDbLine
 10
325.2838439941406
 20
20.21322250366211
 30
0.0
 11
325.5224304199219
 21
20.47829818725586
 31
0.0
1001
DBPROPERTIES
1002
{
1000
PbHidd
1002
}
  0
LINE
  5
2F4
330
1F
100
AcDbEntity
  8
HIDDEN
100
AcDbLine
 10
325.5224304199219
 20
20.47829818725586
 30
0.0
 11
325.7604675292969
 21
20.74362945556641
 31
0.0
1001
DBPROPERTIES
1002
{
1000
PbHidd
1002
}
  0
LINE
  5
2F5
330
1F
100
AcDbEntity
  8
HIDDEN
100
AcDbLine
 10
325.7604675292969
 20
20.74362945556641
 30
0.0
 11
325.9978942871094
 21
21.00911140441895
 31
0.0
1001
DBPROPERTIES
1002
{
1000
PbHidd
1002
}
  0
LINE
  5
2F6
330
1F
100
AcDbEntity
  8
HIDDEN
100
AcDbLine
 10
325.9978942871094
 20
21.00911140441895
 30
0.0
 11
326.2346496582031
 21
21.27465057373047
 31
0.0
1001
DBPROPERTIES
1002
{
1000
PbHidd
1002
}
  0
LINE
  5
2F7
330
1F
100
AcDbEntity
  8
HIDDEN
100
AcDbLine
 10
326.2346496582031
 20
21.27465057373047
 30
0.0
 11
326.4706115722656
 21
21.54014587402344
 31
0.0
1001
DBPROPERTIES
1002
{
1000
PbHidd
1002
}
  0
ELLIPSE
  5
2F8
330
1F
100
AcDbEntity
  8
HIDDEN
100
AcDbEllipse
 10
350.625
 20
0.0
 30
0.0
 11
-44.90826952089532
 21
62.23866524676149
 31
0.0
210
0.0
220
0.0
230
1.0
 40
0.0998536717081515
 41
1.146425095196539
 42
1.236012750204617
1001
DBPROPERTIES
1002
{
1000
PbHidd
1002
}
  0
ELLIPSE
  5
2F9
330
1F
100
AcDbEntity
  8
HIDDEN
100
AcDbEllipse
 10
348.1528640450004
 20
0.0
 30
0.0
 11
44.90826952089535
 21
-62.23866524676148
 31
0.0
210
0.0
220
0.0
230
1.0
 40
0.0998536717081512
 41
2.120269581296002
 42
2.243149668920704
1001
DBPROPERTIES
1002
{
1000
PbHidd
1002
}
  0
LINE
  5
2FA
330
1F
100
AcDbEntity
  8
HIDDEN
100
AcDbLine
 10
325.0448608398438
 20
42.27233123779297
 30
0.0
 11
325.2838439941406
 21
42.47756576538086
 31
0.0
1001
DBPROPERTIES
1002
{
1000
PbHidd
1002
}
  0
LINE
  5
2FB
330
1F
100
AcDbEntity
  8
HIDDEN
100
AcDbLine
 10
325.2838439941406
 20
42.47756576538086
 30
0.0
 11
325.5224304199219
 21
42.68255615234375
 31
0.0
1001
DBPROPERTIES
1002
{
1000
PbHidd
1002
}
  0
LINE
  5
2FC
330
1F
100
AcDbEntity
  8
HIDDEN
100
AcDbLine
 10
325.5224304199219
 20
42.68255615234375
 30
0.0
 11
325.7604675292969
 21
42.88718032836914
 31
0.0
1001
DBPROPERTIES
1002
{
1000
PbHidd
1002
}
  0
LINE
  5
2FD
330
1F
100
AcDbEntity
  8
HIDDEN
100
AcDbLine
 10
325.7604675292969
 20
42.88718032836914
 30
0.0
 11
325.9978942871094
 21
43.09137725830078
 31
0.0
1001
DBPROPERTIES
1002
{
1000
PbHidd
1002
}
  0
LINE
  5
2FE
330
1F
100
AcDbEntity
  8
HIDDEN
100
AcDbLine
 10
325.9978942871094
 20
43.09137725830078
 30
0.0
 11
326.2346496582031
 21
43.29505920410156
 31
0.0
1001
DBPROPERTIES
1002
{
1000
PbHidd
1002
}
  0
LINE
  5
2FF
330
1F
100
AcDbEntity
  8
HIDDEN
100
AcDbLine
 10
326.2346496582031
 20
43.29505920410156
 30
0.0
 11
326.4706115722656
 21
43.49816513061523
 31
0.0
1001
DBPROPERTIES
1002
{
1000
PbHidd
1002
}
  0
ELLIPSE
  5
300
330
1F
100
AcDbEntity
  8
HIDDEN
100
AcDbEllipse
 10
350.625
 20
0.0
 30
0.0
 11
44.90826952089535
 21
-62.23866524676148
 31
0.0
210
0.0
220
0.0
230
1.0
 40
0.0998536717081512
 41
2.180608786901114
 42
2.270196441909193
1001
DBPROPERTIES
1002
{
1000
PbHidd
1002
}
  0
ELLIPSE
  5
301
330
1F
100
AcDbEntity
  8
HIDDEN
100
AcDbEllipse
 10
348.1528640450004
 20
0.0
 30
0.0
 11
41.31083414189627
 21
-61.10944597133438
 31
0.0
210
0.0
220
0.0
230
1.0
 40
0.305614684580699
 41
2.407340305539534
 42
2.530220393164235
1001
DBPROPERTIES
1002
{
1000
PbHidd
1002
}
  0
LINE
  5
302
330
1F
100
AcDbEntity
  8
HIDDEN
100
AcDbLine
 10
325.0448608398438
 20
57.28690719604492
 30
0.0
 11
325.2838439941406
 21
57.39715576171875
 31
0.0
1001
DBPROPERTIES
1002
{
1000
PbHidd
1002
}
  0
LINE
  5
303
330
1F
100
AcDbEntity
  8
HIDDEN
100
AcDbLine
 10
325.2838439941406
 20
57.39715576171875
 30
0.0
 11
325.5224304199219
 21
57.50661087036133
 31
0.0
1001
DBPROPERTIES
1002
{
1000
PbHidd
1002
}
  0
LINE
  5
304
330
1F
100
AcDbEntity
  8
HIDDEN
100
AcDbLine
 10
325.5224304199219
 20
57.50661087036133
 30
0.0
 11
325.7604675292969
 21
57.61515045166016
 31
0.0
1001
DBPROPERTIES
1002
{
1000
PbHidd
1002
}
  0
LINE
  5
305
330
1F
100
AcDbEntity
  8
HIDDEN
100
AcDbLine
 10
325.7604675292969
 20
57.61515045166016
 30
0.0
 11
325.9978942871094
 21
57.72275161743164
 31
0.0
1001
DBPROPERTIES
1002
{
1000
PbHidd
1002
}
  0
LINE
  5
306
330
1F
100
AcDbEntity
  8
HIDDEN
100
AcDbLine
 10
325.9978942871094
 20
57.72275161743164
 30
0.0
 11
326.2346496582031
 21
57.82936859130859
 31
0.0
1001
DBPROPERTIES
1002
{
1000
PbHidd
1002
}
  0
LINE
  5
307
330
1F
100
AcDbEntity
  8
HIDDEN
100
AcDbLine
 10
326.2346496582031
 20
57.82936859130859
 30
0.0
 11
326.4706115722656
 21
57.93495941162109
 31
0.0
1001
DBPROPERTIES
1002
{
1000
PbHidd
1002
}
  0
ELLIPSE
  5
308
330
1F
100
AcDbEntity
  8
HIDDEN
100
AcDbEllipse
 10
350.625
 20
0.0
 30
0.0
 11
41.31083414189627
 21
-61.10944597133438
 31
0.0
210
0.0
220
0.0
230
1.0
 40
0.305614684580699
 41
2.467679511144645
 42
2.557267166152723
1001
DBPROPERTIES
1002
{
1000
PbHidd
1002
}
  0
ELLIPSE
  5
309
330
1F
100
AcDbEntity
  8
HIDDEN
100
AcDbEllipse
 10
348.1528640450004
 20
0.0
 30
0.0
 11
32.56894729210524
 21
-60.00626334328864
 31
0.0
210
0.0
220
0.0
230
1.0
 40
0.5255769183811009
 41
2.752071536839875
 42
2.863707835042495
1001
DBPROPERTIES
1002
{
1000
PbHidd
1002
}
  0
ELLIPSE
  5
30A
330
1F
100
AcDbEntity
  8
HIDDEN
100
AcDbEllipse
 10
348.1528640450004
 20
0.0
 30
0.0
 11
32.56894729210524
 21
-60.00626334328864
 31
0.0
210
0.0
220
0.0
230
1.0
 40
0.5255769183811009
 41
2.863707835042495
 42
2.874951624464577
1001
DBPROPERTIES
1002
{
1000
PbHidd
1002
}
  0
LINE
  5
30B
330
1F
100
AcDbEntity
  8
HIDDEN
100
AcDbLine
 10
325.0448608398438
 20
62.39605712890625
 30
0.0
 11
325.2838439941406
 21
62.39225387573242
 31
0.0
1001
DBPROPERTIES
1002
{
1000
PbHidd
1002
}
  0
LINE
  5
30C
330
1F
100
AcDbEntity
  8
HIDDEN
100
AcDbLine
 10
325.2838439941406
 20
62.39225387573242
 30
0.0
 11
325.5224304199219
 21
62.38725280761719
 31
0.0
1001
DBPROPERTIES
1002
{
1000
PbHidd
1002
}
  0
LINE
  5
30D
330
1F
100
AcDbEntity
  8
HIDDEN
100
AcDbLine
 10
325.5224304199219
 20
62.38725280761719
 30
0.0
 11
325.7604675292969
 21
62.38093566894531
 31
0.0
1001
DBPROPERTIES
1002
{
1000
PbHidd
1002
}
  0
LINE
  5
30E
330
1F
100
AcDbEntity
  8
HIDDEN
100
AcDbLine
 10
325.7604675292969
 20
62.38093566894531
 30
0.0
 11
325.9978942871094
 21
62.37333679199219
 31
0.0
1001
DBPROPERTIES
1002
{
1000
PbHidd
1002
}
  0
LINE
  5
30F
330
1F
100
AcDbEntity
  8
HIDDEN
100
AcDbLine
 10
325.9978942871094
 20
62.37333679199219
 30
0.0
 11
326.2346496582031
 21
62.36444854736328
 31
0.0
1001
DBPROPERTIES
1002
{
1000
PbHidd
1002
}
  0
LINE
  5
310
330
1F
100
AcDbEntity
  8
HIDDEN
100
AcDbLine
 10
326.2346496582031
 20
62.36444854736328
 30
0.0
 11
326.4706115722656
 21
62.35427093505859
 31
0.0
1001
DBPROPERTIES
1002
{
1000
PbHidd
1002
}
  0
ELLIPSE
  5
311
330
1F
100
AcDbEntity
  8
HIDDEN
100
AcDbEllipse
 10
350.625
 20
0.0
 30
0.0
 11
32.56894729210524
 21
-60.00626334328864
 31
0.0
210
0.0
220
0.0
230
1.0
 40
0.5255769183811009
 41
2.863707238864383
 42
2.901998397453066
1001
DBPROPERTIES
1002
{
1000
PbHidd
1002
}
  0
ELLIPSE
  5
312
330
1F
100
AcDbEntity
  8
HIDDEN
100
AcDbEllipse
 10
350.625
 20
0.0
 30
0.0
 11
32.56894729210524
 21
-60.00626334328864
 31
0.0
210
0.0
220
0.0
230
1.0
 40
0.5255769183811009
 41
2.812410742444986
 42
2.863707238864383
1001
DBPROPERTIES
1002
{
1000
PbHidd
1002
}
  0
ELLIPSE
  5
313
330
1F
100
AcDbEntity
  8
HIDDEN
100
AcDbEllipse
 10
348.1528640450004
 20
0.0
 30
0.0
 11
9.729276780711777
 21
-62.01206300487608
 31
0.0
210
0.0
220
0.0
230
1.0
 40
0.7140543777681111
 41
-2.945918746860552
 42
-2.823038659235851
1001
DBPROPERTIES
1002
{
1000
PbHidd
1002
}
  0
LINE
  5
314
330
1F
100
AcDbEntity
  8
HIDDEN
100
AcDbLine
 10
325.0448608398438
 20
56.71636199951172
 30
0.0
 11
325.2838439941406
 21
56.59916305541992
 31
0.0
1001
DBPROPERTIES
1002
{
1000
PbHidd
1002
}
  0
LINE
  5
315
330
1F
100
AcDbEntity
  8
HIDDEN
100
AcDbLine
 10
325.2838439941406
 20
56.59916305541992
 30
0.0
 11
325.5224304199219
 21
56.48056793212891
 31
0.0
1001
DBPROPERTIES
1002
{
1000
PbHidd
1002
}
  0
LINE
  5
316
330
1F
100
AcDbEntity
  8
HIDDEN
100
AcDbLine
 10
325.5224304199219
 20
56.48056793212891
 30
0.0
 11
325.7604675292969
 21
56.36049270629883
 31
0.0
1001
DBPROPERTIES
1002
{
1000
PbHidd
1002
}
  0
LINE
  5
317
330
1F
100
AcDbEntity
  8
HIDDEN
100
AcDbLine
 10
325.7604675292969
 20
56.36049270629883
 30
0.0
 11
325.9978942871094
 21
56.23900604248047
 31
0.0
1001
DBPROPERTIES
1002
{
1000
PbHidd
1002
}
  0
LINE
  5
318
330
1F
100
AcDbEntity
  8
HIDDEN
100
AcDbLine
 10
325.9978942871094
 20
56.23900604248047
 30
0.0
 11
326.2346496582031
 21
56.11614990234375
 31
0.0
1001
DBPROPERTIES
1002
{
1000
PbHidd
1002
}
  0
LINE
  5
319
330
1F
100
AcDbEntity
  8
HIDDEN
100
AcDbLine
 10
326.2346496582031
 20
56.11614990234375
 30
0.0
 11
326.4706115722656
 21
55.99196243286133
 31
0.0
1001
DBPROPERTIES
1002
{
1000
PbHidd
1002
}
  0
ELLIPSE
  5
31A
330
1F
100
AcDbEntity
  8
HIDDEN
100
AcDbEllipse
 10
350.625
 20
0.0
 30
0.0
 11
9.729276780711777
 21
-62.01206300487608
 31
0.0
210
0.0
220
0.0
230
1.0
 40
0.7140543777681111
 41
-2.885579541255442
 42
-2.795991886247361
1001
DBPROPERTIES
1002
{
1000
PbHidd
1002
}
  0
ELLIPSE
  5
31B
330
1F
100
AcDbEntity
  8
HIDDEN
100
AcDbEllipse
 10
348.1528640450004
 20
0.0
 30
0.0
 11
24.17099955362848
 21
60.48844428730498
 31
0.0
210
0.0
220
0.0
230
1.0
 40
0.6340950937257177
 41
0.9742777125646681
 42
1.097157800189368
1001
DBPROPERTIES
1002
{
1000
PbHidd
1002
}
  0
LINE
  5
31C
330
1F
100
AcDbEntity
  8
HIDDEN
100
AcDbLine
 10
325.0448608398438
 20
41.22989273071289
 30
0.0
 11
325.2838439941406
 21
41.01956558227539
 31
0.0
1001
DBPROPERTIES
1002
{
1000
PbHidd
1002
}
  0
LINE
  5
31D
330
1F
100
AcDbEntity
  8
HIDDEN
100
AcDbLine
 10
325.2838439941406
 20
41.01956558227539
 30
0.0
 11
325.5224304199219
 21
40.80788421630859
 31
0.0
1001
DBPROPERTIES
1002
{
1000
PbHidd
1002
}
  0
LINE
  5
31E
330
1F
100
AcDbEntity
  8
HIDDEN
100
AcDbLine
 10
325.5224304199219
 20
40.80788421630859
 30
0.0
 11
325.7604675292969
 21
40.59480667114258
 31
0.0
1001
DBPROPERTIES
1002
{
1000
PbHidd
1002
}
  0
LINE
  5
31F
330
1F
100
AcDbEntity
  8
HIDDEN
100
AcDbLine
 10
325.7604675292969
 20
40.59480667114258
 30
0.0
 11
325.9978942871094
 21
40.38043975830078
 31
0.0
1001
DBPROPERTIES
1002
{
1000
PbHidd
1002
}
  0
LINE
  5
320
330
1F
100
AcDbEntity
  8
HIDDEN
100
AcDbLine
 10
325.9978942871094
 20
40.38043975830078
 30
0.0
 11
326.2346496582031
 21
40.16485977172852
 31
0.0
1001
DBPROPERTIES
1002
{
1000
PbHidd
1002
}
  0
LINE
  5
321
330
1F
100
AcDbEntity
  8
HIDDEN
100
AcDbLine
 10
326.2346496582031
 20
40.16485977172852
 30
0.0
 11
326.4706115722656
 21
39.94813537597656
 31
0.0
1001
DBPROPERTIES
1002
{
1000
PbHidd
1002
}
  0
ELLIPSE
  5
322
330
1F
100
AcDbEntity
  8
HIDDEN
100
AcDbEllipse
 10
350.625
 20
0.0
 30
0.0
 11
24.17099955362848
 21
60.48844428730498
 31
0.0
210
0.0
220
0.0
230
1.0
 40
0.6340950937257177
 41
1.034616918169779
 42
1.124204573177858
1001
DBPROPERTIES
1002
{
1000
PbHidd
1002
}
  0
ELLIPSE
  5
323
330
1F
100
AcDbEntity
  8
HIDDEN
100
AcDbEllipse
 10
348.1528640450004
 20
0.0
 30
0.0
 11
37.81789220778822
 21
60.40451426056933
 31
0.0
210
0.0
220
0.0
230
1.0
 40
0.4139369167159188
 41
1.398574892587227
 42
1.521454980211928
1001
DBPROPERTIES
1002
{
1000
PbHidd
1002
}
  0
LINE
  5
324
330
1F
100
AcDbEntity
  8
HIDDEN
100
AcDbLine
 10
325.0448608398438
 20
18.61440086364746
 30
0.0
 11
325.2838439941406
 21
18.34731101989746
 31
0.0
1001
DBPROPERTIES
1002
{
1000
PbHidd
1002
}
  0
LINE
  5
325
330
1F
100
AcDbEntity
  8
HIDDEN
100
AcDbLine
 10
325.2838439941406
 20
18.34731101989746
 30
0.0
 11
325.5224304199219
 21
18.07914352416992
 31
0.0
1001
DBPROPERTIES
1002
{
1000
PbHidd
1002
}
  0
LINE
  5
326
330
1F
100
AcDbEntity
  8
HIDDEN
100
AcDbLine
 10
325.5224304199219
 20
18.07914352416992
 30
0.0
 11
325.7604675292969
 21
17.80990982055664
 31
0.0
1001
DBPROPERTIES
1002
{
1000
PbHidd
1002
}
  0
LINE
  5
327
330
1F
100
AcDbEntity
  8
HIDDEN
100
AcDbLine
 10
325.7604675292969
 20
17.80990982055664
 30
0.0
 11
325.9978942871094
 21
17.53973007202148
 31
0.0
1001
DBPROPERTIES
1002
{
1000
PbHidd
1002
}
  0
LINE
  5
328
330
1F
100
AcDbEntity
  8
HIDDEN
100
AcDbLine
 10
325.9978942871094
 20
17.53973007202148
 30
0.0
 11
326.2346496582031
 21
17.2686882019043
 31
0.0
1001
DBPROPERTIES
1002
{
1000
PbHidd
1002
}
  0
LINE
  5
329
330
1F
100
AcDbEntity
  8
HIDDEN
100
AcDbLine
 10
326.2346496582031
 20
17.2686882019043
 30
0.0
 11
326.4706115722656
 21
16.99691200256348
 31
0.0
1001
DBPROPERTIES
1002
{
1000
PbHidd
1002
}
  0
ELLIPSE
  5
32A
330
1F
100
AcDbEntity
  8
HIDDEN
100
AcDbEllipse
 10
350.625
 20
0.0
 30
0.0
 11
37.81789220778822
 21
60.40451426056933
 31
0.0
210
0.0
220
0.0
230
1.0
 40
0.4139369167159188
 41
1.458914098192337
 42
1.548501753200416
1001
DBPROPERTIES
1002
{
1000
PbHidd
1002
}
  0
ELLIPSE
  5
32B
330
1F
100
AcDbEntity
  8
HIDDEN
100
AcDbEllipse
 10
348.1528640450004
 20
0.0
 30
0.0
 11
43.59808735461471
 21
61.78006360313142
 31
0.0
210
0.0
220
0.0
230
1.0
 40
0.2012482298961787
 41
1.704953205626031
 42
1.711873413361533
1001
DBPROPERTIES
1002
{
1000
PbHidd
1002
}
  0
ELLIPSE
  5
32C
330
1F
100
AcDbEntity
  8
HIDDEN
100
AcDbEllipse
 10
405.6416996145755
 20
96.60152587372795
 30
0.0
 11
37.95825742666285
 21
57.18933723283734
 31
0.0
210
0.0
220
0.0
230
1.0
 40
0.2390738003669033
 41
2.046898789112209
 42
3.141588512567449
1001
DBPROPERTIES
1002
{
1000
PbHidd
1002
}
  0
ELLIPSE
  5
32D
330
1F
100
AcDbEntity
  8
HIDDEN
100
AcDbEllipse
 10
405.6416996145755
 20
96.60152587372795
 30
0.0
 11
37.95825742666285
 21
57.18933723283734
 31
0.0
210
0.0
220
0.0
230
1.0
 40
0.2390738003669033
 41
3.141588512567449
 42
3.149105995871268
1001
DBPROPERTIES
1002
{
1000
PbHidd
1002
}
  0
ELLIPSE
  5
32E
330
1F
100
AcDbEntity
  8
HIDDEN
100
AcDbEllipse
 10
378.1333498072877
 20
42.97759712060943
 30
0.0
 11
-51.76126012726751
 21
-77.98545986295998
 31
0.0
210
0.0
220
0.0
230
1.0
 40
0.2390738003669033
 41
-1.879428574971437
 42
-0.6967074741521433
1001
DBPROPERTIES
1002
{
1000
PbHidd
1002
}
  0
ELLIPSE
  5
32F
330
1F
100
AcDbEntity
  8
HIDDEN
100
AcDbEllipse
 10
376.5153158185378
 20
44.05153421521163
 30
0.0
 11
51.76126012726751
 21
77.98545986295998
 31
0.0
210
0.0
220
0.0
230
1.0
 40
0.2390738003669033
 41
1.262164078618356
 42
2.434857207515444
1001
DBPROPERTIES
1002
{
1000
PbHidd
1002
}
  0
LINE
  5
330
330
1F
100
AcDbEntity
  8
HIDDEN
100
AcDbLine
 10
374.4747619724655
 20
79.53012237374053
 30
0.0
 11
376.0927959612154
 21
78.45618527913832
 31
0.0
1001
DBPROPERTIES
1002
{
1000
PbHidd
1002
}
  0
ELLIPSE
  5
331
330
1F
100
AcDbEntity
  8
HIDDEN
100
AcDbEllipse
 10
404.0236656258256
 20
97.67546296833014
 30
0.0
 11
-37.95825742666285
 21
-57.18933723283734
 31
0.0
210
0.0
220
0.0
230
1.0
 40
0.2390738003669033
 41
-1.094693864477585
 42
-0.0089882506896204
1001
DBPROPERTIES
1002
{
1000
PbHidd
1002
}
  0
ELLIPSE
  5
332
330
1F
100
AcDbEntity
  8
HIDDEN
100
AcDbEllipse
 10
341.8812037657418
 20
8.443565542702974
 30
0.0
 11
-35.13187022643317
 21
49.43514759503203
 31
0.0
210
0.0
220
0.0
230
1.0
 40
0.1222074256418715
 41
1.401294546775389
 42
1.655157428106986
1001
DBPROPERTIES
1002
{
1000
PbHidd
1002
}
  0
ELLIPSE
  5
333
330
1F
100
AcDbEntity
  8
HIDDEN
100
AcDbEllipse
 10
405.6416996145755
 20
100.7757796530816
 30
0.0
 11
30.01094118977645
 21
61.7316208187002
 31
0.0
210
0.0
220
0.0
230
1.0
 40
0.4368095687330763
 41
1.660641075834092
 42
2.762848282593152
1001
DBPROPERTIES
1002
{
1000
PbHidd
1002
}
  0
ELLIPSE
  5
334
330
1F
100
AcDbEntity
  8
HIDDEN
100
AcDbEllipse
 10
378.1333498072877
 20
40.66198192310539
 30
0.0
 11
-40.92401071333151
 21
-84.17948293459116
 31
0.0
210
0.0
220
0.0
230
1.0
 40
0.4368095687330763
 41
-2.265686288249555
 42
-1.082965187430261
1001
DBPROPERTIES
1002
{
1000
PbHidd
1002
}
  0
ELLIPSE
  5
335
330
1F
100
AcDbEntity
  8
HIDDEN
100
AcDbEllipse
 10
376.5153158185378
 20
41.4485921276559
 30
0.0
 11
40.92401071333151
 21
84.17948293459116
 31
0.0
210
0.0
220
0.0
230
1.0
 40
0.4368095687330763
 41
0.8759063653402386
 42
2.048599494237326
1001
DBPROPERTIES
1002
{
1000
PbHidd
1002
}
  0
LINE
  5
336
330
1F
100
AcDbEntity
  8
HIDDEN
100
AcDbLine
 10
374.4747619724655
 20
109.079779660731
 30
0.0
 11
376.0927959612154
 21
108.2931694561805
 31
0.0
1001
DBPROPERTIES
1002
{
1000
PbHidd
1002
}
  0
ELLIPSE
  5
337
330
1F
100
AcDbEntity
  8
HIDDEN
100
AcDbEllipse
 10
404.0236656258256
 20
101.5623898576321
 30
0.0
 11
-30.01094118977645
 21
-61.7316208187002
 31
0.0
210
0.0
220
0.0
230
1.0
 40
0.4368095687330763
 41
-1.480951577755701
 42
-0.3952459639677373
1001
DBPROPERTIES
1002
{
1000
PbHidd
1002
}
  0
ELLIPSE
  5
338
330
1F
100
AcDbEntity
  8
HIDDEN
100
AcDbEllipse
 10
405.6416996145755
 20
87.52498561120072
 30
0.0
 11
15.03633430809158
 21
66.97281725129464
 31
0.0
210
0.0
220
0.0
230
1.0
 40
0.5590169943749476
 41
1.203737523655988
 42
2.305944730415048
1001
DBPROPERTIES
1002
{
1000
PbHidd
1002
}
  0
ELLIPSE
  5
339
330
1F
100
AcDbEntity
  8
HIDDEN
100
AcDbEllipse
 10
378.1333498072877
 20
31.31554064858754
 30
0.0
 11
-20.5040922383067
 21
-91.32656897903811
 31
0.0
210
0.0
220
0.0
230
1.0
 40
0.5590169943749477
 41
-2.722589840427659
 42
-1.539868739608364
1001
DBPROPERTIES
1002
{
1000
PbHidd
1002
}
  0
ELLIPSE
  5
33A
330
1F
100
AcDbEntity
  8
HIDDEN
100
AcDbEllipse
 10
376.5153158185378
 20
31.67881191259022
 30
0.0
 11
20.5040922383067
 21
91.32656897903811
 31
0.0
210
0.0
220
0.0
230
1.0
 40
0.5590169943749477
 41
0.4190028131621347
 42
1.591695942059222
1001
DBPROPERTIES
1002
{
1000
PbHidd
1002
}
  0
LINE
  5
33B
330
1F
100
AcDbEntity
  8
HIDDEN
100
AcDbLine
 10
374.4747619724655
 20
119.7685520856927
 30
0.0
 11
376.0927959612154
 21
119.40528082169
 31
0.0
1001
DBPROPERTIES
1002
{
1000
PbHidd
1002
}
  0
ELLIPSE
  5
33C
330
1F
100
AcDbEntity
  8
HIDDEN
100
AcDbEllipse
 10
404.0236656258256
 20
87.8882568752034
 30
0.0
 11
-15.03633430809158
 21
-66.97281725129464
 31
0.0
210
0.0
220
0.0
230
1.0
 40
0.5590169943749476
 41
-1.937855129933805
 42
-0.852149516145841
1001
DBPROPERTIES
1002
{
1000
PbHidd
1002
}
  0
ELLIPSE
  5
33D
330
1F
100
AcDbEntity
  8
HIDDEN
100
AcDbEllipse
 10
405.6416996145755
 20
59.1403264176112
 30
0.0
 11
-5.197853943078067
 21
68.44290989128405
 31
0.0
210
0.0
220
0.0
230
1.0
 40
0.5845653031794291
 41
0.6926405579617846
 42
1.794847764720844
1001
DBPROPERTIES
1002
{
1000
PbHidd
1002
}
  0
ELLIPSE
  5
33E
330
1F
100
AcDbEntity
  8
HIDDEN
100
AcDbEllipse
 10
378.1333498072877
 20
16.55435790317333
 30
0.0
 11
7.087982649651912
 21
-93.33124076084189
 31
0.0
210
0.0
220
0.0
230
1.0
 40
0.5845653031794291
 41
-3.141586307898978
 42
-2.050965705302567
1001
DBPROPERTIES
1002
{
1000
PbHidd
1002
}
  0
ELLIPSE
  5
33F
330
1F
100
AcDbEntity
  8
HIDDEN
100
AcDbEllipse
 10
378.1333498072877
 20
16.55435790317333
 30
0.0
 11
7.087982649651912
 21
-93.33124076084189
 31
0.0
210
0.0
220
0.0
230
1.0
 40
0.5845653031794291
 41
3.049498501057724
 42
3.141598999280608
1001
DBPROPERTIES
1002
{
1000
PbHidd
1002
}
  0
ELLIPSE
  5
340
330
1F
100
AcDbEntity
  8
HIDDEN
100
AcDbEllipse
 10
376.5153158185378
 20
16.43147732486628
 30
0.0
 11
-7.087982649651912
 21
93.33124076084189
 31
0.0
210
0.0
220
0.0
230
1.0
 40
0.5845653031794291
 41
-0.0920941525320686
 42
0.0000060956971275
1001
DBPROPERTIES
1002
{
1000
PbHidd
1002
}
  0
ELLIPSE
  5
341
330
1F
100
AcDbEntity
  8
HIDDEN
100
AcDbEllipse
 10
376.5153158185378
 20
16.43147732486628
 30
0.0
 11
-7.087982649651912
 21
93.33124076084189
 31
0.0
210
0.0
220
0.0
230
1.0
 40
0.5845653031794291
 41
0.0000060956971275
 42
1.080598976365019
1001
DBPROPERTIES
1002
{
1000
PbHidd
1002
}
  0
LINE
  5
342
330
1F
100
AcDbEntity
  8
HIDDEN
100
AcDbLine
 10
374.4747619724655
 20
109.7482537919006
 30
0.0
 11
376.0927959612154
 21
109.8711343702076
 31
0.0
1001
DBPROPERTIES
1002
{
1000
PbHidd
1002
}
  0
ELLIPSE
  5
343
330
1F
100
AcDbEntity
  8
HIDDEN
100
AcDbEllipse
 10
404.0236656258256
 20
59.01744583930416
 30
0.0
 11
5.197853943078067
 21
-68.44290989128405
 31
0.0
210
0.0
220
0.0
230
1.0
 40
0.5845653031794291
 41
-2.448952095628008
 42
-1.363246481840045
1001
DBPROPERTIES
1002
{
1000
PbHidd
1002
}
  0
ELLIPSE
  5
344
330
1F
100
AcDbEntity
  8
HIDDEN
100
AcDbEllipse
 10
405.6416996145755
 20
20.52976751341818
 30
0.0
 11
-23.4364391124921
 21
64.51498214931513
 31
0.0
210
0.0
220
0.0
230
1.0
 40
0.5090369604551271
 41
0.2020083799395441
 42
1.304215586698603
1001
DBPROPERTIES
1002
{
1000
PbHidd
1002
}
  0
ELLIPSE
  5
345
330
1F
100
AcDbEntity
  8
HIDDEN
100
AcDbEllipse
 10
378.1333498072877
 20
-1.069223715319747
 30
0.0
 11
31.95878060794378
 21
-87.97497565815701
 31
0.0
210
0.0
220
0.0
230
1.0
 40
0.509036960455127
 41
3.141587329047604
 42
3.741587423854778
1001
DBPROPERTIES
1002
{
1000
PbHidd
1002
}
  0
ELLIPSE
  5
346
330
1F
100
AcDbEntity
  8
HIDDEN
100
AcDbEllipse
 10
378.1333498072877
 20
-1.069223715319747
 30
0.0
 11
31.95878060794378
 21
-87.97497565815701
 31
0.0
210
0.0
220
0.0
230
1.0
 40
0.509036960455127
 41
2.558866323035483
 42
3.141587329047604
1001
DBPROPERTIES
1002
{
1000
PbHidd
1002
}
  0
ELLIPSE
  5
347
330
1F
100
AcDbEntity
  8
HIDDEN
100
AcDbEllipse
 10
376.5153158185378
 20
-1.657008967612221
 30
0.0
 11
-31.95878060794378
 21
87.97497565815701
 31
0.0
210
0.0
220
0.0
230
1.0
 40
0.509036960455127
 41
-0.5827263305543093
 42
-0.0000027782442343
1001
DBPROPERTIES
1002
{
1000
PbHidd
1002
}
  0
ELLIPSE
  5
348
330
1F
100
AcDbEntity
  8
HIDDEN
100
AcDbEllipse
 10
376.5153158185378
 20
-1.657008967612221
 30
0.0
 11
-31.95878060794378
 21
87.97497565815701
 31
0.0
210
0.0
220
0.0
230
1.0
 40
0.509036960455127
 41
-0.0000027782442344
 42
0.589966798342778
1001
DBPROPERTIES
1002
{
1000
PbHidd
1002
}
  0
LINE
  5
349
330
1F
100
AcDbEntity
  8
HIDDEN
100
AcDbLine
 10
374.4747619724655
 20
80.75148538590356
 30
0.0
 11
376.0927959612154
 21
81.33927063819603
 31
0.0
1001
DBPROPERTIES
1002
{
1000
PbHidd
1002
}
  0
ELLIPSE
  5
34A
330
1F
100
AcDbEntity
  8
HIDDEN
100
AcDbEllipse
 10
404.0236656258256
 20
19.94198226112571
 30
0.0
 11
23.4364391124921
 21
-64.51498214931513
 31
0.0
210
0.0
220
0.0
230
1.0
 40
0.5090369604551271
 41
-2.939584273650249
 42
-1.853878659862286
1001
DBPROPERTIES
1002
{
1000
PbHidd
1002
}
  0
ELLIPSE
  5
34B
330
1F
100
AcDbEntity
  8
HIDDEN
100
AcDbEllipse
 10
405.6416996145755
 20
-21.63057470092756
 30
0.0
 11
-34.78207445659597
 21
59.1747995053284
 31
0.0
210
0.0
220
0.0
230
1.0
 40
0.3454915028125263
 41
-0.2175737381524314
 42
0.0000049635300505
1001
DBPROPERTIES
1002
{
1000
PbHidd
1002
}
  0
ELLIPSE
  5
34C
330
1F
100
AcDbEntity
  8
HIDDEN
100
AcDbEllipse
 10
405.6416996145755
 20
-21.63057470092756
 30
0.0
 11
-34.78207445659597
 21
59.1747995053284
 31
0.0
210
0.0
220
0.0
230
1.0
 40
0.3454915028125263
 41
0.0000049635300505
 42
0.8846334686066262
1001
DBPROPERTIES
1002
{
1000
PbHidd
1002
}
  0
ELLIPSE
  5
34D
330
1F
100
AcDbEntity
  8
HIDDEN
100
AcDbEllipse
 10
378.1333498072877
 20
-18.50792683984152
 30
0.0
 11
47.43010153172177
 21
-80.69290841635691
 31
0.0
210
0.0
220
0.0
230
1.0
 40
0.3454915028125262
 41
3.14159068370037
 42
3.322005305762803
1001
DBPROPERTIES
1002
{
1000
PbHidd
1002
}
  0
ELLIPSE
  5
34E
330
1F
100
AcDbEntity
  8
HIDDEN
100
AcDbEllipse
 10
378.1333498072877
 20
-18.50792683984152
 30
0.0
 11
47.43010153172177
 21
-80.69290841635691
 31
0.0
210
0.0
220
0.0
230
1.0
 40
0.3454915028125262
 41
2.139284204943508
 42
3.14159068370037
1001
DBPROPERTIES
1002
{
1000
PbHidd
1002
}
  0
ELLIPSE
  5
34F
330
1F
100
AcDbEntity
  8
HIDDEN
100
AcDbEllipse
 10
376.5153158185378
 20
-19.45898335613667
 30
0.0
 11
-47.43010153172177
 21
80.69290841635691
 31
0.0
210
0.0
220
0.0
230
1.0
 40
0.3454915028125262
 41
-1.002308448646285
 42
-0.0000050455417866
1001
DBPROPERTIES
1002
{
1000
PbHidd
1002
}
  0
ELLIPSE
  5
350
330
1F
100
AcDbEntity
  8
HIDDEN
100
AcDbEllipse
 10
376.5153158185378
 20
-19.45898335613667
 30
0.0
 11
-47.43010153172177
 21
80.69290841635691
 31
0.0
210
0.0
220
0.0
230
1.0
 40
0.3454915028125262
 41
-0.0000050455417866
 42
0.1703846802508008
1001
DBPROPERTIES
1002
{
1000
PbHidd
1002
}
  0
LINE
  5
351
330
1F
100
AcDbEntity
  8
HIDDEN
100
AcDbLine
 10
374.4747619724655
 20
37.79205155246961
 30
0.0
 11
376.0927959612154
 21
38.74310806876476
 31
0.0
1001
DBPROPERTIES
1002
{
1000
PbHidd
1002
}
  0
ELLIPSE
  5
352
330
1F
100
AcDbEntity
  8
HIDDEN
100
AcDbEllipse
 10
404.0236656258256
 20
-22.58163121722271
 30
0.0
 11
34.78207445659597
 21
-59.1747995053284
 31
0.0
210
0.0
220
0.0
230
1.0
 40
0.3454915028125263
 41
-3.141587643761545
 42
-2.273460777954261
1001
DBPROPERTIES
1002
{
1000
PbHidd
1002
}
  0
ELLIPSE
  5
353
330
1F
100
AcDbEntity
  8
HIDDEN
100
AcDbEllipse
 10
404.0236656258256
 20
-22.58163121722271
 30
0.0
 11
34.78207445659597
 21
-59.1747995053284
 31
0.0
210
0.0
220
0.0
230
1.0
 40
0.3454915028125263
 41
2.924018915437361
 42
3.141597663418041
1001
DBPROPERTIES
1002
{
1000
PbHidd
1002
}
  0
ELLIPSE
  5
354
330
1F
100
AcDbEntity
  8
HIDDEN
100
AcDbEllipse
 10
378.1333498072877
 20
-32.74644127451786
 30
0.0
 11
54.22086074864615
 21
-76.29586004283536
 31
0.0
210
0.0
220
0.0
230
1.0
 40
0.1222074256418712
 41
1.778190855388599
 42
2.960911956207894
1001
DBPROPERTIES
1002
{
1000
PbHidd
1002
}
  0
ELLIPSE
  5
355
330
1F
100
AcDbEntity
  8
HIDDEN
100
AcDbEllipse
 10
405.6416996145755
 20
-60.05079404188088
 30
0.0
 11
-39.76196454900717
 21
55.95029736474593
 31
0.0
210
0.0
220
0.0
230
1.0
 40
0.1222074256418712
 41
-0.5786670877073412
 42
0.0000026126552842
1001
DBPROPERTIES
1002
{
1000
PbHidd
1002
}
  0
ELLIPSE
  5
356
330
1F
100
AcDbEntity
  8
HIDDEN
100
AcDbEllipse
 10
405.6416996145755
 20
-60.05079404188088
 30
0.0
 11
-39.76196454900717
 21
55.95029736474593
 31
0.0
210
0.0
220
0.0
230
1.0
 40
0.1222074256418712
 41
0.0000026126552842
 42
0.5235401190517163
1001
DBPROPERTIES
1002
{
1000
PbHidd
1002
}
  0
ELLIPSE
  5
357
330
1F
100
AcDbEntity
  8
HIDDEN
100
AcDbEllipse
 10
376.5153158185378
 20
-33.89632274307106
 30
0.0
 11
-54.22086074864615
 21
76.29586004283536
 31
0.0
210
0.0
220
0.0
230
1.0
 40
0.1222074256418712
 41
-1.363401798201195
 42
-0.1907086693041067
1001
DBPROPERTIES
1002
{
1000
PbHidd
1002
}
  0
LINE
  5
358
330
1F
100
AcDbEntity
  8
HIDDEN
100
AcDbLine
 10
374.4747619724655
 20
-11.70197132439638
 30
0.0
 11
376.0927959612154
 21
-10.55208985584319
 31
0.0
1001
DBPROPERTIES
1002
{
1000
PbHidd
1002
}
  0
ELLIPSE
  5
359
330
1F
100
AcDbEntity
  8
HIDDEN
100
AcDbEllipse
 10
404.0236656258256
 20
-61.20067551043407
 30
0.0
 11
39.76196454900717
 21
-55.95029736474593
 31
0.0
210
0.0
220
0.0
230
1.0
 40
0.1222074256418712
 41
3.141591932100232
 42
3.648631179670416
1001
DBPROPERTIES
1002
{
1000
PbHidd
1002
}
  0
ELLIPSE
  5
35A
330
1F
100
AcDbEntity
  8
HIDDEN
100
AcDbEllipse
 10
404.0236656258256
 20
-61.20067551043407
 30
0.0
 11
39.76196454900717
 21
-55.95029736474593
 31
0.0
210
0.0
220
0.0
230
1.0
 40
0.1222074256418712
 41
2.562925565882451
 42
3.141591932100232
1001
DBPROPERTIES
1002
{
1000
PbHidd
1002
}
  0
ELLIPSE
  5
35B
330
1F
100
AcDbEntity
  8
HIDDEN
100
AcDbEllipse
 10
378.1333498072877
 20
-41.32279852075043
 30
0.0
 11
54.22086074864612
 21
-76.29586004283537
 31
0.0
210
0.0
220
0.0
230
1.0
 40
0.1222074256418715
 41
-2.620319351997006
 42
-1.43759825117771
1001
DBPROPERTIES
1002
{
1000
PbHidd
1002
}
  0
ELLIPSE
  5
35C
330
1F
100
AcDbEntity
  8
HIDDEN
100
AcDbEllipse
 10
405.6416996145755
 20
-88.08768554865573
 30
0.0
 11
-39.76196454900716
 21
55.95029736474594
 31
0.0
210
0.0
220
0.0
230
1.0
 40
0.1222074256418716
 41
-0.0000038313377778
 42
0.9192596919182308
1001
DBPROPERTIES
1002
{
1000
PbHidd
1002
}
  0
ELLIPSE
  5
35D
330
1F
100
AcDbEntity
  8
HIDDEN
100
AcDbEllipse
 10
405.6416996145755
 20
-88.08768554865573
 30
0.0
 11
-39.76196454900716
 21
55.95029736474594
 31
0.0
210
0.0
220
0.0
230
1.0
 40
0.1222074256418716
 41
-0.1829475148408291
 42
-0.0000038313377778
1001
DBPROPERTIES
1002
{
1000
PbHidd
1002
}
  0
ELLIPSE
  5
35E
330
1F
100
AcDbEntity
  8
HIDDEN
100
AcDbEllipse
 10
376.5153158185378
 20
-42.47267998930363
 30
0.0
 11
-54.22086074864612
 21
76.29586004283537
 31
0.0
210
0.0
220
0.0
230
1.0
 40
0.1222074256418715
 41
0.5313012735149946
 42
1.703994402412083
1001
DBPROPERTIES
1002
{
1000
PbHidd
1002
}
  0
LINE
  5
35F
330
1F
100
AcDbEntity
  8
HIDDEN
100
AcDbLine
 10
374.4747619724655
 20
-59.17261705020217
 30
0.0
 11
376.0927959612154
 21
-58.02273558164898
 31
0.0
1001
DBPROPERTIES
1002
{
1000
PbHidd
1002
}
  0
ELLIPSE
  5
360
330
1F
100
AcDbEntity
  8
HIDDEN
100
AcDbEllipse
 10
404.0236656258256
 20
-89.23756701720892
 30
0.0
 11
39.76196454900716
 21
-55.95029736474594
 31
0.0
210
0.0
220
0.0
230
1.0
 40
0.1222074256418716
 41
2.97514673172006
 42
3.141593868986217
1001
DBPROPERTIES
1002
{
1000
PbHidd
1002
}
  0
ELLIPSE
  5
361
330
1F
100
AcDbEntity
  8
HIDDEN
100
AcDbEllipse
 10
404.0236656258256
 20
-89.23756701720892
 30
0.0
 11
39.76196454900716
 21
-55.95029736474594
 31
0.0
210
0.0
220
0.0
230
1.0
 40
0.1222074256418716
 41
-3.14159143819337
 42
-2.222332961671563
1001
DBPROPERTIES
1002
{
1000
PbHidd
1002
}
  0
ELLIPSE
  5
362
330
1F
100
AcDbEntity
  8
HIDDEN
100
AcDbEllipse
 10
405.6416996145755
 20
-100.8934159725675
 30
0.0
 11
-34.78207445659595
 21
59.17479950532839
 31
0.0
210
0.0
220
0.0
230
1.0
 40
0.3454915028125263
 41
0.1781458347140801
 42
1.280353041473139
1001
DBPROPERTIES
1002
{
1000
PbHidd
1002
}
  0
ELLIPSE
  5
363
330
1F
100
AcDbEntity
  8
HIDDEN
100
AcDbEllipse
 10
378.1333498072877
 20
-42.75406849690602
 30
0.0
 11
47.43010153172175
 21
-80.6929084163569
 31
0.0
210
0.0
220
0.0
230
1.0
 40
0.3454915028125263
 41
-2.259226002442095
 42
-1.076504901622801
1001
DBPROPERTIES
1002
{
1000
PbHidd
1002
}
  0
ELLIPSE
  5
364
330
1F
100
AcDbEntity
  8
HIDDEN
100
AcDbEllipse
 10
376.5153158185378
 20
-43.70512501320118
 30
0.0
 11
-47.43010153172175
 21
80.6929084163569
 31
0.0
210
0.0
220
0.0
230
1.0
 40
0.3454915028125263
 41
0.8923946230699049
 42
2.065087751966992
1001
DBPROPERTIES
1002
{
1000
PbHidd
1002
}
  0
LINE
  5
365
330
1F
100
AcDbEntity
  8
HIDDEN
100
AcDbLine
 10
374.4747619724655
 20
-96.4117797216782
 30
0.0
 11
376.0927959612154
 21
-95.46072320538305
 31
0.0
1001
DBPROPERTIES
1002
{
1000
PbHidd
1002
}
  0
ELLIPSE
  5
366
330
1F
100
AcDbEntity
  8
HIDDEN
100
AcDbEllipse
 10
404.0236656258256
 20
-101.8444724888627
 30
0.0
 11
34.78207445659595
 21
-59.17479950532839
 31
0.0
210
0.0
220
0.0
230
1.0
 40
0.3454915028125263
 41
-2.946945225904618
 42
-1.861239612116654
1001
DBPROPERTIES
1002
{
1000
PbHidd
1002
}
  0
ELLIPSE
  5
367
330
1F
100
AcDbEntity
  8
HIDDEN
100
AcDbEllipse
 10
405.6416996145755
 20
-96.2537581869133
 30
0.0
 11
-23.43643911249207
 21
64.51498214931514
 31
0.0
210
0.0
220
0.0
230
1.0
 40
0.5090369604551271
 41
0.5977279528060565
 42
1.699935159565116
1001
DBPROPERTIES
1002
{
1000
PbHidd
1002
}
  0
ELLIPSE
  5
368
330
1F
100
AcDbEntity
  8
HIDDEN
100
AcDbEllipse
 10
378.1333498072877
 20
-36.79277162142781
 30
0.0
 11
31.95878060794373
 21
-87.97497565815699
 31
0.0
210
0.0
220
0.0
230
1.0
 40
0.5090369604551273
 41
-1.839643884350119
 42
-0.6569227835308247
1001
DBPROPERTIES
1002
{
1000
PbHidd
1002
}
  0
ELLIPSE
  5
369
330
1F
100
AcDbEntity
  8
HIDDEN
100
AcDbEllipse
 10
376.5153158185378
 20
-37.38055687372028
 30
0.0
 11
-31.95878060794373
 21
87.97497565815699
 31
0.0
210
0.0
220
0.0
230
1.0
 40
0.5090369604551273
 41
1.311976741161881
 42
2.484669870058969
1001
DBPROPERTIES
1002
{
1000
PbHidd
1002
}
  0
LINE
  5
36A
330
1F
100
AcDbEntity
  8
HIDDEN
100
AcDbLine
 10
374.4747619724655
 20
-116.9804698057541
 30
0.0
 11
376.0927959612154
 21
-116.3926845534617
 31
0.0
1001
DBPROPERTIES
1002
{
1000
PbHidd
1002
}
  0
ELLIPSE
  5
36B
330
1F
100
AcDbEntity
  8
HIDDEN
100
AcDbEllipse
 10
404.0236656258256
 20
-96.84154343920576
 30
0.0
 11
23.43643911249207
 21
-64.51498214931514
 31
0.0
210
0.0
220
0.0
230
1.0
 40
0.5090369604551271
 41
-2.527363107812642
 42
-1.441657494024678
1001
DBPROPERTIES
1002
{
1000
PbHidd
1002
}
  0
ELLIPSE
  5
36C
330
1F
100
AcDbEntity
  8
HIDDEN
100
AcDbEllipse
 10
405.6416996145755
 20
-74.97095117280038
 30
0.0
 11
-5.197853943078025
 21
68.44290989128405
 31
0.0
210
0.0
220
0.0
230
1.0
 40
0.584565303179429
 41
1.088360130828297
 42
2.190567337587356
1001
DBPROPERTIES
1002
{
1000
PbHidd
1002
}
  0
ELLIPSE
  5
36D
330
1F
100
AcDbEntity
  8
HIDDEN
100
AcDbEllipse
 10
378.1333498072877
 20
-24.46967028076791
 30
0.0
 11
7.087982649651849
 21
-93.33124076084187
 31
0.0
210
0.0
220
0.0
230
1.0
 40
0.5845653031794291
 41
-1.349011706327878
 42
-0.1662906055085838
1001
DBPROPERTIES
1002
{
1000
PbHidd
1002
}
  0
ELLIPSE
  5
36E
330
1F
100
AcDbEntity
  8
HIDDEN
100
AcDbEllipse
 10
376.5153158185378
 20
-24.59255085907496
 30
0.0
 11
-7.087982649651849
 21
93.33124076084187
 31
0.0
210
0.0
220
0.0
230
1.0
 40
0.5845653031794291
 41
1.802608919184122
 42
2.97530204808121
1001
DBPROPERTIES
1002
{
1000
PbHidd
1002
}
  0
LINE
  5
36F
330
1F
100
AcDbEntity
  8
HIDDEN
100
AcDbLine
 10
374.4747619724655
 20
-117.3221739262101
 30
0.0
 11
376.0927959612154
 21
-117.199293347903
 31
0.0
1001
DBPROPERTIES
1002
{
1000
PbHidd
1002
}
  0
ELLIPSE
  5
370
330
1F
100
AcDbEntity
  8
HIDDEN
100
AcDbEllipse
 10
404.0236656258256
 20
-75.09383175110742
 30
0.0
 11
5.197853943078025
 21
-68.44290989128405
 31
0.0
210
0.0
220
0.0
230
1.0
 40
0.584565303179429
 41
-2.0367309297904
 42
-0.9510253160024371
1001
DBPROPERTIES
1002
{
1000
PbHidd
1002
}
  0
ELLIPSE
  5
371
330
1F
100
AcDbEntity
  8
HIDDEN
100
AcDbEllipse
 10
405.6416996145755
 20
-40.72498561120071
 30
0.0
 11
15.03633430809159
 21
66.97281725129464
 31
0.0
210
0.0
220
0.0
230
1.0
 40
0.5590169943749473
 41
1.5994570965225
 42
2.701664303281559
1001
DBPROPERTIES
1002
{
1000
PbHidd
1002
}
  0
ELLIPSE
  5
372
330
1F
100
AcDbEntity
  8
HIDDEN
100
AcDbEllipse
 10
378.1333498072877
 20
-7.915540648587539
 30
0.0
 11
-20.50409223830671
 21
-91.32656897903811
 31
0.0
210
0.0
220
0.0
230
1.0
 40
0.5590169943749475
 41
-0.8379147406336757
 42
0.0000049402860894
1001
DBPROPERTIES
1002
{
1000
PbHidd
1002
}
  0
ELLIPSE
  5
373
330
1F
100
AcDbEntity
  8
HIDDEN
100
AcDbEllipse
 10
378.1333498072877
 20
-7.915540648587539
 30
0.0
 11
-20.50409223830671
 21
-91.32656897903811
 31
0.0
210
0.0
220
0.0
230
1.0
 40
0.5590169943749475
 41
0.0000049402860894
 42
0.344806360185619
1001
DBPROPERTIES
1002
{
1000
PbHidd
1002
}
  0
ELLIPSE
  5
374
330
1F
100
AcDbEntity
  8
HIDDEN
100
AcDbEllipse
 10
376.5153158185378
 20
-7.552269384584859
 30
0.0
 11
20.50409223830671
 21
91.32656897903811
 31
0.0
210
0.0
220
0.0
230
1.0
 40
0.5590169943749475
 41
-3.141587065725973
 42
-2.796786293404174
1001
DBPROPERTIES
1002
{
1000
PbHidd
1002
}
  0
ELLIPSE
  5
375
330
1F
100
AcDbEntity
  8
HIDDEN
100
AcDbEllipse
 10
376.5153158185378
 20
-7.552269384584859
 30
0.0
 11
20.50409223830671
 21
91.32656897903811
 31
0.0
210
0.0
220
0.0
230
1.0
 40
0.5590169943749475
 41
2.313705884878325
 42
3.141598241453613
1001
DBPROPERTIES
1002
{
1000
PbHidd
1002
}
  0
LINE
  5
376
330
1F
100
AcDbEntity
  8
HIDDEN
100
AcDbLine
 10
374.4747619724655
 20
-97.37780833633461
 30
0.0
 11
376.0927959612154
 21
-97.7410796003373
 31
0.0
1001
DBPROPERTIES
1002
{
1000
PbHidd
1002
}
  0
ELLIPSE
  5
377
330
1F
100
AcDbEntity
  8
HIDDEN
100
AcDbEllipse
 10
404.0236656258256
 20
-40.36171434719803
 30
0.0
 11
-15.03633430809159
 21
-66.97281725129464
 31
0.0
210
0.0
220
0.0
230
1.0
 40
0.5590169943749473
 41
-1.525633964096198
 42
-0.4399283503082345
1001
DBPROPERTIES
1002
{
1000
PbHidd
1002
}
  0
ELLIPSE
  5
378
330
1F
100
AcDbEntity
  8
HIDDEN
100
AcDbEllipse
 10
405.6416996145755
 20
0.562699937455001
 30
0.0
 11
30.01094118977646
 21
61.73162081870018
 31
0.0
210
0.0
220
0.0
230
1.0
 40
0.436809568733076
 41
3.141587521225285
 42
3.158567855459662
1001
DBPROPERTIES
1002
{
1000
PbHidd
1002
}
  0
ELLIPSE
  5
379
330
1F
100
AcDbEntity
  8
HIDDEN
100
AcDbEllipse
 10
405.6416996145755
 20
0.562699937455001
 30
0.0
 11
30.01094118977646
 21
61.73162081870018
 31
0.0
210
0.0
220
0.0
230
1.0
 40
0.436809568733076
 41
2.056360648700605
 42
3.141587521225285
1001
DBPROPERTIES
1002
{
1000
PbHidd
1002
}
  0
ELLIPSE
  5
37A
330
1F
100
AcDbEntity
  8
HIDDEN
100
AcDbEllipse
 10
378.1333498072877
 20
10.00725787216289
 30
0.0
 11
-40.92401071333153
 21
-84.17948293459115
 31
0.0
210
0.0
220
0.0
230
1.0
 40
0.4368095687330759
 41
-0.3810111884555712
 42
0.0000060767412202
1001
DBPROPERTIES
1002
{
1000
PbHidd
1002
}
  0
ELLIPSE
  5
37B
330
1F
100
AcDbEntity
  8
HIDDEN
100
AcDbEllipse
 10
378.1333498072877
 20
10.00725787216289
 30
0.0
 11
-40.92401071333153
 21
-84.17948293459115
 31
0.0
210
0.0
220
0.0
230
1.0
 40
0.4368095687330759
 41
0.0000060767412202
 42
0.8017099123637228
1001
DBPROPERTIES
1002
{
1000
PbHidd
1002
}
  0
ELLIPSE
  5
37C
330
1F
100
AcDbEntity
  8
HIDDEN
100
AcDbEllipse
 10
376.5153158185378
 20
10.79386807671341
 30
0.0
 11
40.92401071333153
 21
84.17948293459115
 31
0.0
210
0.0
220
0.0
230
1.0
 40
0.4368095687330759
 41
-3.141589324981502
 42
-2.33988274122607
1001
DBPROPERTIES
1002
{
1000
PbHidd
1002
}
  0
ELLIPSE
  5
37D
330
1F
100
AcDbEntity
  8
HIDDEN
100
AcDbEllipse
 10
376.5153158185378
 20
10.79386807671341
 30
0.0
 11
40.92401071333153
 21
84.17948293459115
 31
0.0
210
0.0
220
0.0
230
1.0
 40
0.4368095687330759
 41
2.77060943705643
 42
3.141595982198084
1001
DBPROPERTIES
1002
{
1000
PbHidd
1002
}
  0
LINE
  5
37E
330
1F
100
AcDbEntity
  8
HIDDEN
100
AcDbLine
 10
374.4747619724655
 20
-60.59593503549051
 30
0.0
 11
376.0927959612154
 21
-61.38254524004102
 31
0.0
1001
DBPROPERTIES
1002
{
1000
PbHidd
1002
}
  0
ELLIPSE
  5
37F
330
1F
100
AcDbEntity
  8
HIDDEN
100
AcDbEllipse
 10
404.0236656258256
 20
1.349310142005507
 30
0.0
 11
-30.01094118977646
 21
-61.73162081870018
 31
0.0
210
0.0
220
0.0
230
1.0
 40
0.436809568733076
 41
-1.068730411918094
 42
-0.0000048818573559
1001
DBPROPERTIES
1002
{
1000
PbHidd
1002
}
  0
ELLIPSE
  5
380
330
1F
100
AcDbEntity
  8
HIDDEN
100
AcDbEllipse
 10
404.0236656258256
 20
1.349310142005507
 30
0.0
 11
-30.01094118977646
 21
-61.73162081870018
 31
0.0
210
0.0
220
0.0
230
1.0
 40
0.436809568733076
 41
-0.000004881857356
 42
0.0169752018698692
1001
DBPROPERTIES
1002
{
1000
PbHidd
1002
}
  0
ELLIPSE
  5
381
330
1F
100
AcDbEntity
  8
HIDDEN
100
AcDbEllipse
 10
405.6416996145755
 20
41.75308955495627
 30
0.0
 11
37.95825742666285
 21
57.18933723283732
 31
0.0
210
0.0
220
0.0
230
1.0
 40
0.2390738003669028
 41
-3.141587834948627
 42
-2.738359738441807
1001
DBPROPERTIES
1002
{
1000
PbHidd
1002
}
  0
ELLIPSE
  5
382
330
1F
100
AcDbEntity
  8
HIDDEN
100
AcDbEllipse
 10
405.6416996145755
 20
41.75308955495627
 30
0.0
 11
37.95825742666285
 21
57.18933723283732
 31
0.0
210
0.0
220
0.0
230
1.0
 40
0.2390738003669028
 41
2.442618361978721
 42
3.141597472230959
1001
DBPROPERTIES
1002
{
1000
PbHidd
1002
}
  0
ELLIPSE
  5
383
330
1F
100
AcDbEntity
  8
HIDDEN
100
AcDbEllipse
 10
378.1333498072877
 20
26.19971059373267
 30
0.0
 11
-51.76126012726751
 21
-77.98545986295998
 31
0.0
210
0.0
220
0.0
230
1.0
 40
0.2390738003669028
 41
0.0052465248225463
 42
1.18796762564184
1001
DBPROPERTIES
1002
{
1000
PbHidd
1002
}
  0
ELLIPSE
  5
384
330
1F
100
AcDbEntity
  8
HIDDEN
100
AcDbEllipse
 10
376.5153158185378
 20
27.27364768833487
 30
0.0
 11
51.76126012726751
 21
77.98545986295998
 31
0.0
210
0.0
220
0.0
230
1.0
 40
0.2390738003669028
 41
-3.126318156845039
 42
-1.953625027947953
1001
DBPROPERTIES
1002
{
1000
PbHidd
1002
}
  0
LINE
  5
385
330
1F
100
AcDbEntity
  8
HIDDEN
100
AcDbLine
 10
374.4747619724655
 20
-13.33647407022239
 30
0.0
 11
376.0927959612154
 21
-14.41041116482459
 31
0.0
1001
DBPROPERTIES
1002
{
1000
PbHidd
1002
}
  0
ELLIPSE
  5
386
330
1F
100
AcDbEntity
  8
HIDDEN
100
AcDbEllipse
 10
404.0236656258256
 20
42.82702664955847
 30
0.0
 11
-37.95825742666285
 21
-57.18933723283732
 31
0.0
210
0.0
220
0.0
230
1.0
 40
0.2390738003669028
 41
-0.6824726986399763
 42
0.000002501218079
1001
DBPROPERTIES
1002
{
1000
PbHidd
1002
}
  0
ELLIPSE
  5
387
330
1F
100
AcDbEntity
  8
HIDDEN
100
AcDbEllipse
 10
404.0236656258256
 20
42.82702664955847
 30
0.0
 11
-37.95825742666285
 21
-57.18933723283732
 31
0.0
210
0.0
220
0.0
230
1.0
 40
0.2390738003669028
 41
0.000002501218079
 42
0.4032329151479863
1001
DBPROPERTIES
1002
{
1000
PbHidd
1002
}
  0
LINE
  5
388
330
1F
100
AcDbEntity
  8
HIDDEN
100
AcDbLine
 10
376.0927959612154
 20
35.0534139152656
 30
0.0
 11
367.5473578788339
 21
23.2916274361698
 31
0.0
1001
DBPROPERTIES
1002
{
1000
PbHidd
1002
}
  0
LINE
  5
389
330
1F
100
AcDbEntity
  8
HIDDEN
100
AcDbLine
 10
374.4747619724655
 20
36.22898441985055
 30
0.0
 11
376.0927959612154
 21
35.05341391526561
 31
0.0
1001
DBPROPERTIES
1002
{
1000
PbHidd
1002
}
  0
LINE
  5
38A
330
1F
100
AcDbEntity
  8
HIDDEN
100
AcDbLine
 10
365.9440034955502
 20
24.48740268431827
 30
0.0
 11
374.4747619724654
 21
36.22898441985054
 31
0.0
1001
DBPROPERTIES
1002
{
1000
PbHidd
1002
}
  0
LINE
  5
38B
330
1F
100
AcDbEntity
  8
HIDDEN
100
AcDbLine
 10
322.0
 20
177.0
 30
0.0
 11
322.0
 21
0.0000000000000434
 31
0.0
1001
DBPROPERTIES
1002
{
1000
PbHidd
1002
}
  0
LINE
  5
38C
330
1F
100
AcDbEntity
  8
HIDDEN
100
AcDbLine
 10
-318.0
 20
0.0
 30
0.0
 11
-318.0
 21
177.0
 31
0.0
1001
DBPROPERTIES
1002
{
1000
PbHidd
1002
}
  0
LINE
  5
38D
330
1F
100
AcDbEntity
  8
HIDDEN
100
AcDbLine
 10
-402.5
 20
-148.2
 30
0.0
 11
-402.5
 21
148.2
 31
0.0
1001
DBPROPERTIES
1002
{
1000
PbHidd
1002
}
  0
LINE
  5
38E
330
1F
100
AcDbEntity
  8
HIDDEN
100
AcDbLine
 10
402.5
 20
148.2
 30
0.0
 11
402.5
 21
-148.2
 31
0.0
1001
DBPROPERTIES
1002
{
1000
PbHidd
1002
}
  0
LINE
  5
38F
330
1F
100
AcDbEntity
  8
HIDDEN
100
AcDbLine
 10
-61.87499999999999
 20
61.875
 30
0.0
 11
-61.87499999999999
 21
61.875
 31
0.0
1001
DBPROPERTIES
1002
{
1000
PbHidd
1002
}
  0
LINE
  5
390
330
1F
100
AcDbEntity
  8
HIDDEN
100
AcDbLine
 10
-61.87499999999999
 20
61.875
 30
0.0
 11
-61.87499999999999
 21
36.89390193514375
 31
0.0
1001
DBPROPERTIES
1002
{
1000
PbHidd
1002
}
  0
LINE
  5
391
330
1F
100
AcDbEntity
  8
HIDDEN
100
AcDbLine
 10
-61.87499999999999
 20
-36.89390193514375
 30
0.0
 11
-61.87499999999999
 21
-61.875
 31
0.0
1001
DBPROPERTIES
1002
{
1000
PbHidd
1002
}
  0
LINE
  5
392
330
1F
100
AcDbEntity
  8
HIDDEN
100
AcDbLine
 10
-61.87499999999999
 20
-61.875
 30
0.0
 11
-61.87499999999999
 21
-61.875
 31
0.0
1001
DBPROPERTIES
1002
{
1000
PbHidd
1002
}
  0
LINE
  5
393
330
1F
100
AcDbEntity
  8
HIDDEN
100
AcDbLine
 10
61.87500000000001
 20
-61.87500000000001
 30
0.0
 11
61.87500000000001
 21
-61.87500000000001
 31
0.0
1001
DBPROPERTIES
1002
{
1000
PbHidd
1002
}
  0
LINE
  5
394
330
1F
100
AcDbEntity
  8
HIDDEN
100
AcDbLine
 10
-61.87499999999999
 20
-61.875
 30
0.0
 11
61.87500000000001
 21
-61.87500000000002
 31
0.0
1001
DBPROPERTIES
1002
{
1000
PbHidd
1002
}
  0
LINE
  5
395
330
1F
100
AcDbEntity
  8
HIDDEN
100
AcDbLine
 10
61.87500000000004
 20
36.89390193514375
 30
0.0
 11
61.87500000000004
 21
61.875
 31
0.0
1001
DBPROPERTIES
1002
{
1000
PbHidd
1002
}
  0
LINE
  5
396
330
1F
100
AcDbEntity
  8
HIDDEN
100
AcDbLine
 10
61.87500000000001
 20
61.875
 30
0.0
 11
61.87500000000001
 21
61.875
 31
0.0
1001
DBPROPERTIES
1002
{
1000
PbHidd
1002
}
  0
LINE
  5
397
330
1F
100
AcDbEntity
  8
HIDDEN
100
AcDbLine
 10
61.87500000000002
 20
-61.87500000000001
 30
0.0
 11
61.87500000000002
 21
-36.89390193514375
 31
0.0
1001
DBPROPERTIES
1002
{
1000
PbHidd
1002
}
  0
LINE
  5
398
330
1F
100
AcDbEntity
  8
HIDDEN
100
AcDbLine
 10
61.875
 20
36.89390182495117
 30
0.0
 11
62.69013977050781
 21
36.81622695922852
 31
0.0
1001
DBPROPERTIES
1002
{
1000
PbHidd
1002
}
  0
LINE
  5
399
330
1F
100
AcDbEntity
  8
HIDDEN
100
AcDbLine
 10
62.69013977050781
 20
36.81622695922852
 30
0.0
 11
63.48519134521484
 21
36.59019470214844
 31
0.0
1001
DBPROPERTIES
1002
{
1000
PbHidd
1002
}
  0
LINE
  5
39A
330
1F
100
AcDbEntity
  8
HIDDEN
100
AcDbLine
 10
63.48519134521484
 20
36.59019470214844
 30
0.0
 11
64.24492645263672
 21
36.23149871826172
 31
0.0
1001
DBPROPERTIES
1002
{
1000
PbHidd
1002
}
  0
LINE
  5
39B
330
1F
100
AcDbEntity
  8
HIDDEN
100
AcDbLine
 10
64.24492645263672
 20
36.23149871826172
 30
0.0
 11
64.95721435546875
 21
35.76338958740234
 31
0.0
1001
DBPROPERTIES
1002
{
1000
PbHidd
1002
}
  0
LINE
  5
39C
330
1F
100
AcDbEntity
  8
HIDDEN
100
AcDbLine
 10
64.95721435546875
 20
35.76338958740234
 30
0.0
 11
65.6140365600586
 21
35.21259689331055
 31
0.0
1001
DBPROPERTIES
1002
{
1000
PbHidd
1002
}
  0
LINE
  5
39D
330
1F
100
AcDbEntity
  8
HIDDEN
100
AcDbLine
 10
65.6140365600586
 20
35.21259689331055
 30
0.0
 11
66.20863342285156
 21
34.60884094238281
 31
0.0
1001
DBPROPERTIES
1002
{
1000
PbHidd
1002
}
  0
LINE
  5
39E
330
1F
100
AcDbEntity
  8
HIDDEN
100
AcDbLine
 10
66.20863342285156
 20
34.60884094238281
 30
0.0
 11
66.73717498779297
 21
33.98257827758789
 31
0.0
1001
DBPROPERTIES
1002
{
1000
PbHidd
1002
}
  0
LINE
  5
39F
330
1F
100
AcDbEntity
  8
HIDDEN
100
AcDbLine
 10
66.73717498779297
 20
33.98257827758789
 30
0.0
 11
67.21553039550781
 21
33.33780670166016
 31
0.0
1001
DBPROPERTIES
1002
{
1000
PbHidd
1002
}
  0
LINE
  5
3A0
330
1F
100
AcDbEntity
  8
HIDDEN
100
AcDbLine
 10
67.21553039550781
 20
33.33780670166016
 30
0.0
 11
67.65536499023438
 21
32.67336654663086
 31
0.0
1001
DBPROPERTIES
1002
{
1000
PbHidd
1002
}
  0
LINE
  5
3A1
330
1F
100
AcDbEntity
  8
HIDDEN
100
AcDbLine
 10
67.65536499023438
 20
32.67336654663086
 30
0.0
 11
68.06320190429688
 21
31.99227714538574
 31
0.0
1001
DBPROPERTIES
1002
{
1000
PbHidd
1002
}
  0
LINE
  5
3A2
330
1F
100
AcDbEntity
  8
HIDDEN
100
AcDbLine
 10
68.06320190429688
 20
31.99227714538574
 30
0.0
 11
68.44329071044922
 21
31.29623031616211
 31
0.0
1001
DBPROPERTIES
1002
{
1000
PbHidd
1002
}
  0
LINE
  5
3A3
330
1F
100
AcDbEntity
  8
HIDDEN
100
AcDbLine
 10
68.44329071044922
 20
31.29623031616211
 30
0.0
 11
68.79898071289062
 21
30.58639907836914
 31
0.0
1001
DBPROPERTIES
1002
{
1000
PbHidd
1002
}
  0
LINE
  5
3A4
330
1F
100
AcDbEntity
  8
HIDDEN
100
AcDbLine
 10
68.79898071289062
 20
30.58639907836914
 30
0.0
 11
69.13321685791016
 21
29.86394691467285
 31
0.0
1001
DBPROPERTIES
1002
{
1000
PbHidd
1002
}
  0
LINE
  5
3A5
330
1F
100
AcDbEntity
  8
HIDDEN
100
AcDbLine
 10
69.13321685791016
 20
29.86394691467285
 30
0.0
 11
69.44795227050781
 21
29.12967681884766
 31
0.0
1001
DBPROPERTIES
1002
{
1000
PbHidd
1002
}
  0
LINE
  5
3A6
330
1F
100
AcDbEntity
  8
HIDDEN
100
AcDbLine
 10
69.44795227050781
 20
29.12967681884766
 30
0.0
 11
69.74504852294922
 21
28.38422966003418
 31
0.0
1001
DBPROPERTIES
1002
{
1000
PbHidd
1002
}
  0
LINE
  5
3A7
330
1F
100
AcDbEntity
  8
HIDDEN
100
AcDbLine
 10
69.74504852294922
 20
28.38422966003418
 30
0.0
 11
70.0260238647461
 21
27.62811851501465
 31
0.0
1001
DBPROPERTIES
1002
{
1000
PbHidd
1002
}
  0
LINE
  5
3A8
330
1F
100
AcDbEntity
  8
HIDDEN
100
AcDbLine
 10
70.0260238647461
 20
27.62811851501465
 30
0.0
 11
70.29205322265625
 21
26.86172294616699
 31
0.0
1001
DBPROPERTIES
1002
{
1000
PbHidd
1002
}
  0
LINE
  5
3A9
330
1F
100
AcDbEntity
  8
HIDDEN
100
AcDbLine
 10
70.29205322265625
 20
26.86172294616699
 30
0.0
 11
70.54424285888672
 21
26.08559226989746
 31
0.0
1001
DBPROPERTIES
1002
{
1000
PbHidd
1002
}
  0
LINE
  5
3AA
330
1F
100
AcDbEntity
  8
HIDDEN
100
AcDbLine
 10
70.54424285888672
 20
26.08559226989746
 30
0.0
 11
70.78334045410156
 21
25.30058097839355
 31
0.0
1001
DBPROPERTIES
1002
{
1000
PbHidd
1002
}
  0
LINE
  5
3AB
330
1F
100
AcDbEntity
  8
HIDDEN
100
AcDbLine
 10
70.78334045410156
 20
25.30058097839355
 30
0.0
 11
71.00996398925781
 21
24.50714874267578
 31
0.0
1001
DBPROPERTIES
1002
{
1000
PbHidd
1002
}
  0
LINE
  5
3AC
330
1F
100
AcDbEntity
  8
HIDDEN
100
AcDbLine
 10
71.00996398925781
 20
24.50714874267578
 30
0.0
 11
71.2247543334961
 21
23.70573043823242
 31
0.0
1001
DBPROPERTIES
1002
{
1000
PbHidd
1002
}
  0
LINE
  5
3AD
330
1F
100
AcDbEntity
  8
HIDDEN
100
AcDbLine
 10
71.2247543334961
 20
23.70573043823242
 30
0.0
 11
71.4283447265625
 21
22.89675903320312
 31
0.0
1001
DBPROPERTIES
1002
{
1000
PbHidd
1002
}
  0
LINE
  5
3AE
330
1F
100
AcDbEntity
  8
HIDDEN
100
AcDbLine
 10
71.4283447265625
 20
22.89675903320312
 30
0.0
 11
71.6213607788086
 21
22.08066558837891
 31
0.0
1001
DBPROPERTIES
1002
{
1000
PbHidd
1002
}
  0
LINE
  5
3AF
330
1F
100
AcDbEntity
  8
HIDDEN
100
AcDbLine
 10
71.6213607788086
 20
22.08066558837891
 30
0.0
 11
71.80422973632812
 21
21.25784301757812
 31
0.0
1001
DBPROPERTIES
1002
{
1000
PbHidd
1002
}
  0
LINE
  5
3B0
330
1F
100
AcDbEntity
  8
HIDDEN
100
AcDbLine
 10
71.80422973632812
 20
21.25784301757812
 30
0.0
 11
71.977294921875
 21
20.42865753173828
 31
0.0
1001
DBPROPERTIES
1002
{
1000
PbHidd
1002
}
  0
LINE
  5
3B1
330
1F
100
AcDbEntity
  8
HIDDEN
100
AcDbLine
 10
71.977294921875
 20
20.42865753173828
 30
0.0
 11
72.1408920288086
 21
19.59348297119141
 31
0.0
1001
DBPROPERTIES
1002
{
1000
PbHidd
1002
}
  0
LINE
  5
3B2
330
1F
100
AcDbEntity
  8
HIDDEN
100
AcDbLine
 10
72.1408920288086
 20
19.59348297119141
 30
0.0
 11
72.29537963867188
 21
18.7526912689209
 31
0.0
1001
DBPROPERTIES
1002
{
1000
PbHidd
1002
}
  0
LINE
  5
3B3
330
1F
100
AcDbEntity
  8
HIDDEN
100
AcDbLine
 10
72.29537963867188
 20
18.7526912689209
 30
0.0
 11
72.44108581542969
 21
17.90666198730469
 31
0.0
1001
DBPROPERTIES
1002
{
1000
PbHidd
1002
}
  0
LINE
  5
3B4
330
1F
100
AcDbEntity
  8
HIDDEN
100
AcDbLine
 10
72.44108581542969
 20
17.90666198730469
 30
0.0
 11
72.57820892333984
 21
17.05635452270508
 31
0.0
1001
DBPROPERTIES
1002
{
1000
PbHidd
1002
}
  0
LINE
  5
3B5
330
1F
100
AcDbEntity
  8
HIDDEN
100
AcDbLine
 10
72.57820892333984
 20
17.05635452270508
 30
0.0
 11
72.70691680908203
 21
16.20257759094238
 31
0.0
1001
DBPROPERTIES
1002
{
1000
PbHidd
1002
}
  0
LINE
  5
3B6
330
1F
100
AcDbEntity
  8
HIDDEN
100
AcDbLine
 10
72.70691680908203
 20
16.20257759094238
 30
0.0
 11
72.82743072509766
 21
15.34584331512451
 31
0.0
1001
DBPROPERTIES
1002
{
1000
PbHidd
1002
}
  0
LINE
  5
3B7
330
1F
100
AcDbEntity
  8
HIDDEN
100
AcDbLine
 10
72.82743072509766
 20
15.34584331512451
 30
0.0
 11
72.93997955322266
 21
14.48666191101074
 31
0.0
1001
DBPROPERTIES
1002
{
1000
PbHidd
1002
}
  0
LINE
  5
3B8
330
1F
100
AcDbEntity
  8
HIDDEN
100
AcDbLine
 10
72.93997955322266
 20
14.48666191101074
 30
0.0
 11
73.0447769165039
 21
13.62554550170898
 31
0.0
1001
DBPROPERTIES
1002
{
1000
PbHidd
1002
}
  0
LINE
  5
3B9
330
1F
100
AcDbEntity
  8
HIDDEN
100
AcDbLine
 10
73.0447769165039
 20
13.62554550170898
 30
0.0
 11
73.14204406738281
 21
12.76300430297852
 31
0.0
1001
DBPROPERTIES
1002
{
1000
PbHidd
1002
}
  0
LINE
  5
3BA
330
1F
100
AcDbEntity
  8
HIDDEN
100
AcDbLine
 10
73.14204406738281
 20
12.76300430297852
 30
0.0
 11
73.23194885253906
 21
11.89954662322998
 31
0.0
1001
DBPROPERTIES
1002
{
1000
PbHidd
1002
}
  0
LINE
  5
3BB
330
1F
100
AcDbEntity
  8
HIDDEN
100
AcDbLine
 10
73.23194885253906
 20
11.89954662322998
 30
0.0
 11
73.31465148925781
 21
11.03568077087402
 31
0.0
1001
DBPROPERTIES
1002
{
1000
PbHidd
1002
}
  0
LINE
  5
3BC
330
1F
100
AcDbEntity
  8
HIDDEN
100
AcDbLine
 10
73.31465148925781
 20
11.03568077087402
 30
0.0
 11
73.39032745361328
 21
10.17191600799561
 31
0.0
1001
DBPROPERTIES
1002
{
1000
PbHidd
1002
}
  0
LINE
  5
3BD
330
1F
100
AcDbEntity
  8
HIDDEN
100
AcDbLine
 10
73.39032745361328
 20
10.17191600799561
 30
0.0
 11
73.45914459228516
 21
9.308761596679688
 31
0.0
1001
DBPROPERTIES
1002
{
1000
PbHidd
1002
}
  0
LINE
  5
3BE
330
1F
100
AcDbEntity
  8
HIDDEN
100
AcDbLine
 10
73.45914459228516
 20
9.308761596679688
 30
0.0
 11
73.5212631225586
 21
8.446723937988281
 31
0.0
1001
DBPROPERTIES
1002
{
1000
PbHidd
1002
}
  0
LINE
  5
3BF
330
1F
100
AcDbEntity
  8
HIDDEN
100
AcDbLine
 10
73.5212631225586
 20
8.446723937988281
 30
0.0
 11
73.57683563232422
 21
7.586313724517822
 31
0.0
1001
DBPROPERTIES
1002
{
1000
PbHidd
1002
}
  0
LINE
  5
3C0
330
1F
100
AcDbEntity
  8
HIDDEN
100
AcDbLine
 10
73.57683563232422
 20
7.586313724517822
 30
0.0
 11
73.6259994506836
 21
6.728039741516113
 31
0.0
1001
DBPROPERTIES
1002
{
1000
PbHidd
1002
}
  0
LINE
  5
3C1
330
1F
100
AcDbEntity
  8
HIDDEN
100
AcDbLine
 10
73.6259994506836
 20
6.728039741516113
 30
0.0
 11
73.66888427734375
 21
5.87241268157959
 31
0.0
1001
DBPROPERTIES
1002
{
1000
PbHidd
1002
}
  0
LINE
  5
3C2
330
1F
100
AcDbEntity
  8
HIDDEN
100
AcDbLine
 10
73.66888427734375
 20
5.87241268157959
 30
0.0
 11
73.70562744140625
 21
5.019943237304688
 31
0.0
1001
DBPROPERTIES
1002
{
1000
PbHidd
1002
}
  0
LINE
  5
3C3
330
1F
100
AcDbEntity
  8
HIDDEN
100
AcDbLine
 10
73.70562744140625
 20
5.019943237304688
 30
0.0
 11
73.7363510131836
 21
4.171140670776367
 31
0.0
1001
DBPROPERTIES
1002
{
1000
PbHidd
1002
}
  0
LINE
  5
3C4
330
1F
100
AcDbEntity
  8
HIDDEN
100
AcDbLine
 10
73.7363510131836
 20
4.171140670776367
 30
0.0
 11
73.76119232177734
 21
3.326516389846802
 31
0.0
1001
DBPROPERTIES
1002
{
1000
PbHidd
1002
}
  0
LINE
  5
3C5
330
1F
100
AcDbEntity
  8
HIDDEN
100
AcDbLine
 10
73.76119232177734
 20
3.326516389846802
 30
0.0
 11
73.78028106689453
 21
2.486579656600952
 31
0.0
1001
DBPROPERTIES
1002
{
1000
PbHidd
1002
}
  0
LINE
  5
3C6
330
1F
100
AcDbEntity
  8
HIDDEN
100
AcDbLine
 10
73.78028106689453
 20
2.486579656600952
 30
0.0
 11
73.79375457763672
 21
1.651841282844543
 31
0.0
1001
DBPROPERTIES
1002
{
1000
PbHidd
1002
}
  0
LINE
  5
3C7
330
1F
100
AcDbEntity
  8
HIDDEN
100
AcDbLine
 10
73.79375457763672
 20
1.651841282844543
 30
0.0
 11
73.80174255371094
 21
0.8228113055229187
 31
0.0
1001
DBPROPERTIES
1002
{
1000
PbHidd
1002
}
  0
LINE
  5
3C8
330
1F
100
AcDbEntity
  8
HIDDEN
100
AcDbLine
 10
73.80174255371094
 20
0.8228113055229187
 30
0.0
 11
73.80437469482422
 21
0.0
 31
0.0
1001
DBPROPERTIES
1002
{
1000
PbHidd
1002
}
  0
LINE
  5
3C9
330
1F
100
AcDbEntity
  8
HIDDEN
100
AcDbLine
 10
82.50000000000001
 20
82.50000000000003
 30
0.0
 11
61.875
 21
61.87500000000001
 31
0.0
1001
DBPROPERTIES
1002
{
1000
PbHidd
1002
}
  0
LINE
  5
3CA
330
1F
100
AcDbEntity
  8
HIDDEN
100
AcDbLine
 10
61.87500000000001
 20
-61.87500000000001
 30
0.0
 11
82.50000000000001
 21
-82.5
 31
0.0
1001
DBPROPERTIES
1002
{
1000
PbHidd
1002
}
  0
LINE
  5
3CB
330
1F
100
AcDbEntity
  8
HIDDEN
100
AcDbLine
 10
-82.49999999999999
 20
-82.5
 30
0.0
 11
-61.87499999999999
 21
-61.875
 31
0.0
1001
DBPROPERTIES
1002
{
1000
PbHidd
1002
}
  0
LINE
  5
3CC
330
1F
100
AcDbEntity
  8
HIDDEN
100
AcDbLine
 10
82.50000000000001
 20
-82.5
 30
0.0
 11
82.50000000000001
 21
-82.5
 31
0.0
1001
DBPROPERTIES
1002
{
1000
PbHidd
1002
}
  0
LINE
  5
3CD
330
1F
100
AcDbEntity
  8
HIDDEN
100
AcDbLine
 10
82.50000000000001
 20
82.5
 30
0.0
 11
82.50000000000001
 21
82.5
 31
0.0
1001
DBPROPERTIES
1002
{
1000
PbHidd
1002
}
  0
LINE
  5
3CE
330
1F
100
AcDbEntity
  8
THICK
100
AcDbLine
 10
82.50000000000003
 20
82.5
 30
0.0
 11
82.5
 21
-82.5
 31
0.0
1001
DBPROPERTIES
1002
{
1000
PbThick
1002
}
  0
LINE
  5
3CF
330
1F
100
AcDbEntity
  8
HIDDEN
100
AcDbLine
 10
61.87500000000001
 20
61.875
 30
0.0
 11
-61.87499999999999
 21
61.875
 31
0.0
1001
DBPROPERTIES
1002
{
1000
PbHidd
1002
}
  0
LINE
  5
3D0
330
1F
100
AcDbEntity
  8
HIDDEN
100
AcDbLine
 10
-61.87499999999999
 20
61.875
 30
0.0
 11
-82.49999999999999
 21
82.5
 31
0.0
1001
DBPROPERTIES
1002
{
1000
PbHidd
1002
}
  0
LINE
  5
3D1
330
1F
100
AcDbEntity
  8
HIDDEN
100
AcDbLine
 10
-73.80437469482422
 20
0.0
 30
0.0
 11
-73.80174255371094
 21
0.8228113055229187
 31
0.0
1001
DBPROPERTIES
1002
{
1000
PbHidd
1002
}
  0
LINE
  5
3D2
330
1F
100
AcDbEntity
  8
HIDDEN
100
AcDbLine
 10
-73.80174255371094
 20
0.8228113055229187
 30
0.0
 11
-73.79375457763672
 21
1.651841282844543
 31
0.0
1001
DBPROPERTIES
1002
{
1000
PbHidd
1002
}
  0
LINE
  5
3D3
330
1F
100
AcDbEntity
  8
HIDDEN
100
AcDbLine
 10
-73.79375457763672
 20
1.651841282844543
 30
0.0
 11
-73.78028106689453
 21
2.486579656600952
 31
0.0
1001
DBPROPERTIES
1002
{
1000
PbHidd
1002
}
  0
LINE
  5
3D4
330
1F
100
AcDbEntity
  8
HIDDEN
100
AcDbLine
 10
-73.78028106689453
 20
2.486579656600952
 30
0.0
 11
-73.76119232177734
 21
3.326516389846802
 31
0.0
1001
DBPROPERTIES
1002
{
1000
PbHidd
1002
}
  0
LINE
  5
3D5
330
1F
100
AcDbEntity
  8
HIDDEN
100
AcDbLine
 10
-73.76119232177734
 20
3.326516389846802
 30
0.0
 11
-73.7363510131836
 21
4.171140670776367
 31
0.0
1001
DBPROPERTIES
1002
{
1000
PbHidd
1002
}
  0
LINE
  5
3D6
330
1F
100
AcDbEntity
  8
HIDDEN
100
AcDbLine
 10
-73.7363510131836
 20
4.171140670776367
 30
0.0
 11
-73.70562744140625
 21
5.019943237304688
 31
0.0
1001
DBPROPERTIES
1002
{
1000
PbHidd
1002
}
  0
LINE
  5
3D7
330
1F
100
AcDbEntity
  8
HIDDEN
100
AcDbLine
 10
-73.70562744140625
 20
5.019943237304688
 30
0.0
 11
-73.66888427734375
 21
5.87241268157959
 31
0.0
1001
DBPROPERTIES
1002
{
1000
PbHidd
1002
}
  0
LINE
  5
3D8
330
1F
100
AcDbEntity
  8
HIDDEN
100
AcDbLine
 10
-73.66888427734375
 20
5.87241268157959
 30
0.0
 11
-73.6259994506836
 21
6.728039741516113
 31
0.0
1001
DBPROPERTIES
1002
{
1000
PbHidd
1002
}
  0
LINE
  5
3D9
330
1F
100
AcDbEntity
  8
HIDDEN
100
AcDbLine
 10
-73.6259994506836
 20
6.728039741516113
 30
0.0
 11
-73.57683563232422
 21
7.586313724517822
 31
0.0
1001
DBPROPERTIES
1002
{
1000
PbHidd
1002
}
  0
LINE
  5
3DA
330
1F
100
AcDbEntity
  8
HIDDEN
100
AcDbLine
 10
-73.57683563232422
 20
7.586313724517822
 30
0.0
 11
-73.5212631225586
 21
8.446723937988281
 31
0.0
1001
DBPROPERTIES
1002
{
1000
PbHidd
1002
}
  0
LINE
  5
3DB
330
1F
100
AcDbEntity
  8
HIDDEN
100
AcDbLine
 10
-73.5212631225586
 20
8.446723937988281
 30
0.0
 11
-73.45914459228516
 21
9.308761596679688
 31
0.0
1001
DBPROPERTIES
1002
{
1000
PbHidd
1002
}
  0
LINE
  5
3DC
330
1F
100
AcDbEntity
  8
HIDDEN
100
AcDbLine
 10
-73.45914459228516
 20
9.308761596679688
 30
0.0
 11
-73.39032745361328
 21
10.17191600799561
 31
0.0
1001
DBPROPERTIES
1002
{
1000
PbHidd
1002
}
  0
LINE
  5
3DD
330
1F
100
AcDbEntity
  8
HIDDEN
100
AcDbLine
 10
-73.39032745361328
 20
10.17191600799561
 30
0.0
 11
-73.31465148925781
 21
11.03568077087402
 31
0.0
1001
DBPROPERTIES
1002
{
1000
PbHidd
1002
}
  0
LINE
  5
3DE
330
1F
100
AcDbEntity
  8
HIDDEN
100
AcDbLine
 10
-73.31465148925781
 20
11.03568077087402
 30
0.0
 11
-73.23194885253906
 21
11.89954662322998
 31
0.0
1001
DBPROPERTIES
1002
{
1000
PbHidd
1002
}
  0
LINE
  5
3DF
330
1F
100
AcDbEntity
  8
HIDDEN
100
AcDbLine
 10
-73.23194885253906
 20
11.89954662322998
 30
0.0
 11
-73.14204406738281
 21
12.76300430297852
 31
0.0
1001
DBPROPERTIES
1002
{
1000
PbHidd
1002
}
  0
LINE
  5
3E0
330
1F
100
AcDbEntity
  8
HIDDEN
100
AcDbLine
 10
-73.14204406738281
 20
12.76300430297852
 30
0.0
 11
-73.0447769165039
 21
13.62554550170898
 31
0.0
1001
DBPROPERTIES
1002
{
1000
PbHidd
1002
}
  0
LINE
  5
3E1
330
1F
100
AcDbEntity
  8
HIDDEN
100
AcDbLine
 10
-73.0447769165039
 20
13.62554550170898
 30
0.0
 11
-72.93997955322266
 21
14.48666191101074
 31
0.0
1001
DBPROPERTIES
1002
{
1000
PbHidd
1002
}
  0
LINE
  5
3E2
330
1F
100
AcDbEntity
  8
HIDDEN
100
AcDbLine
 10
-72.93997955322266
 20
14.48666191101074
 30
0.0
 11
-72.82743072509766
 21
15.34584331512451
 31
0.0
1001
DBPROPERTIES
1002
{
1000
PbHidd
1002
}
  0
LINE
  5
3E3
330
1F
100
AcDbEntity
  8
HIDDEN
100
AcDbLine
 10
-72.82743072509766
 20
15.34584331512451
 30
0.0
 11
-72.70691680908203
 21
16.20257759094238
 31
0.0
1001
DBPROPERTIES
1002
{
1000
PbHidd
1002
}
  0
LINE
  5
3E4
330
1F
100
AcDbEntity
  8
HIDDEN
100
AcDbLine
 10
-72.70691680908203
 20
16.20257759094238
 30
0.0
 11
-72.57820892333984
 21
17.05635452270508
 31
0.0
1001
DBPROPERTIES
1002
{
1000
PbHidd
1002
}
  0
LINE
  5
3E5
330
1F
100
AcDbEntity
  8
HIDDEN
100
AcDbLine
 10
-72.57820892333984
 20
17.05635452270508
 30
0.0
 11
-72.44108581542969
 21
17.90666198730469
 31
0.0
1001
DBPROPERTIES
1002
{
1000
PbHidd
1002
}
  0
LINE
  5
3E6
330
1F
100
AcDbEntity
  8
HIDDEN
100
AcDbLine
 10
-72.44108581542969
 20
17.90666198730469
 30
0.0
 11
-72.29537963867188
 21
18.7526912689209
 31
0.0
1001
DBPROPERTIES
1002
{
1000
PbHidd
1002
}
  0
LINE
  5
3E7
330
1F
100
AcDbEntity
  8
HIDDEN
100
AcDbLine
 10
-72.29537963867188
 20
18.7526912689209
 30
0.0
 11
-72.1408920288086
 21
19.59348297119141
 31
0.0
1001
DBPROPERTIES
1002
{
1000
PbHidd
1002
}
  0
LINE
  5
3E8
330
1F
100
AcDbEntity
  8
HIDDEN
100
AcDbLine
 10
-72.1408920288086
 20
19.59348297119141
 30
0.0
 11
-71.977294921875
 21
20.42865753173828
 31
0.0
1001
DBPROPERTIES
1002
{
1000
PbHidd
1002
}
  0
LINE
  5
3E9
330
1F
100
AcDbEntity
  8
HIDDEN
100
AcDbLine
 10
-71.977294921875
 20
20.42865753173828
 30
0.0
 11
-71.80422973632812
 21
21.25784301757812
 31
0.0
1001
DBPROPERTIES
1002
{
1000
PbHidd
1002
}
  0
LINE
  5
3EA
330
1F
100
AcDbEntity
  8
HIDDEN
100
AcDbLine
 10
-71.80422973632812
 20
21.25784301757812
 30
0.0
 11
-71.6213607788086
 21
22.08066558837891
 31
0.0
1001
DBPROPERTIES
1002
{
1000
PbHidd
1002
}
  0
LINE
  5
3EB
330
1F
100
AcDbEntity
  8
HIDDEN
100
AcDbLine
 10
-71.6213607788086
 20
22.08066558837891
 30
0.0
 11
-71.4283447265625
 21
22.89675903320312
 31
0.0
1001
DBPROPERTIES
1002
{
1000
PbHidd
1002
}
  0
LINE
  5
3EC
330
1F
100
AcDbEntity
  8
HIDDEN
100
AcDbLine
 10
-71.4283447265625
 20
22.89675903320312
 30
0.0
 11
-71.2247543334961
 21
23.70573043823242
 31
0.0
1001
DBPROPERTIES
1002
{
1000
PbHidd
1002
}
  0
LINE
  5
3ED
330
1F
100
AcDbEntity
  8
HIDDEN
100
AcDbLine
 10
-71.2247543334961
 20
23.70573043823242
 30
0.0
 11
-71.00996398925781
 21
24.50714874267578
 31
0.0
1001
DBPROPERTIES
1002
{
1000
PbHidd
1002
}
  0
LINE
  5
3EE
330
1F
100
AcDbEntity
  8
HIDDEN
100
AcDbLine
 10
-71.00996398925781
 20
24.50714874267578
 30
0.0
 11
-70.78334045410156
 21
25.30058097839355
 31
0.0
1001
DBPROPERTIES
1002
{
1000
PbHidd
1002
}
  0
LINE
  5
3EF
330
1F
100
AcDbEntity
  8
HIDDEN
100
AcDbLine
 10
-70.78334045410156
 20
25.30058097839355
 30
0.0
 11
-70.54424285888672
 21
26.08559226989746
 31
0.0
1001
DBPROPERTIES
1002
{
1000
PbHidd
1002
}
  0
LINE
  5
3F0
330
1F
100
AcDbEntity
  8
HIDDEN
100
AcDbLine
 10
-70.54424285888672
 20
26.08559226989746
 30
0.0
 11
-70.29205322265625
 21
26.86172294616699
 31
0.0
1001
DBPROPERTIES
1002
{
1000
PbHidd
1002
}
  0
LINE
  5
3F1
330
1F
100
AcDbEntity
  8
HIDDEN
100
AcDbLine
 10
-70.29205322265625
 20
26.86172294616699
 30
0.0
 11
-70.0260238647461
 21
27.62811851501465
 31
0.0
1001
DBPROPERTIES
1002
{
1000
PbHidd
1002
}
  0
LINE
  5
3F2
330
1F
100
AcDbEntity
  8
HIDDEN
100
AcDbLine
 10
-70.0260238647461
 20
27.62811851501465
 30
0.0
 11
-69.74504852294922
 21
28.38422966003418
 31
0.0
1001
DBPROPERTIES
1002
{
1000
PbHidd
1002
}
  0
LINE
  5
3F3
330
1F
100
AcDbEntity
  8
HIDDEN
100
AcDbLine
 10
-69.74504852294922
 20
28.38422966003418
 30
0.0
 11
-69.44795227050781
 21
29.12967681884766
 31
0.0
1001
DBPROPERTIES
1002
{
1000
PbHidd
1002
}
  0
LINE
  5
3F4
330
1F
100
AcDbEntity
  8
HIDDEN
100
AcDbLine
 10
-69.44795227050781
 20
29.12967681884766
 30
0.0
 11
-69.13321685791016
 21
29.86394691467285
 31
0.0
1001
DBPROPERTIES
1002
{
1000
PbHidd
1002
}
  0
LINE
  5
3F5
330
1F
100
AcDbEntity
  8
HIDDEN
100
AcDbLine
 10
-69.13321685791016
 20
29.86394691467285
 30
0.0
 11
-68.79898071289062
 21
30.58639907836914
 31
0.0
1001
DBPROPERTIES
1002
{
1000
PbHidd
1002
}
  0
LINE
  5
3F6
330
1F
100
AcDbEntity
  8
HIDDEN
100
AcDbLine
 10
-68.79898071289062
 20
30.58639907836914
 30
0.0
 11
-68.44329071044922
 21
31.29623031616211
 31
0.0
1001
DBPROPERTIES
1002
{
1000
PbHidd
1002
}
  0
LINE
  5
3F7
330
1F
100
AcDbEntity
  8
HIDDEN
100
AcDbLine
 10
-68.44329071044922
 20
31.29623031616211
 30
0.0
 11
-68.06320190429688
 21
31.99227714538574
 31
0.0
1001
DBPROPERTIES
1002
{
1000
PbHidd
1002
}
  0
LINE
  5
3F8
330
1F
100
AcDbEntity
  8
HIDDEN
100
AcDbLine
 10
-68.06320190429688
 20
31.99227714538574
 30
0.0
 11
-67.65536499023438
 21
32.67336654663086
 31
0.0
1001
DBPROPERTIES
1002
{
1000
PbHidd
1002
}
  0
LINE
  5
3F9
330
1F
100
AcDbEntity
  8
HIDDEN
100
AcDbLine
 10
-67.65536499023438
 20
32.67336654663086
 30
0.0
 11
-67.21553039550781
 21
33.33780670166016
 31
0.0
1001
DBPROPERTIES
1002
{
1000
PbHidd
1002
}
  0
LINE
  5
3FA
330
1F
100
AcDbEntity
  8
HIDDEN
100
AcDbLine
 10
-67.21553039550781
 20
33.33780670166016
 30
0.0
 11
-66.73717498779297
 21
33.98257827758789
 31
0.0
1001
DBPROPERTIES
1002
{
1000
PbHidd
1002
}
  0
LINE
  5
3FB
330
1F
100
AcDbEntity
  8
HIDDEN
100
AcDbLine
 10
-66.73717498779297
 20
33.98257827758789
 30
0.0
 11
-66.20863342285156
 21
34.60884094238281
 31
0.0
1001
DBPROPERTIES
1002
{
1000
PbHidd
1002
}
  0
LINE
  5
3FC
330
1F
100
AcDbEntity
  8
HIDDEN
100
AcDbLine
 10
-66.20863342285156
 20
34.60884094238281
 30
0.0
 11
-65.6140365600586
 21
35.21259689331055
 31
0.0
1001
DBPROPERTIES
1002
{
1000
PbHidd
1002
}
  0
LINE
  5
3FD
330
1F
100
AcDbEntity
  8
HIDDEN
100
AcDbLine
 10
-65.6140365600586
 20
35.21259689331055
 30
0.0
 11
-64.95721435546875
 21
35.76338958740234
 31
0.0
1001
DBPROPERTIES
1002
{
1000
PbHidd
1002
}
  0
LINE
  5
3FE
330
1F
100
AcDbEntity
  8
HIDDEN
100
AcDbLine
 10
-64.95721435546875
 20
35.76338958740234
 30
0.0
 11
-64.24492645263672
 21
36.23149871826172
 31
0.0
1001
DBPROPERTIES
1002
{
1000
PbHidd
1002
}
  0
LINE
  5
3FF
330
1F
100
AcDbEntity
  8
HIDDEN
100
AcDbLine
 10
-64.24492645263672
 20
36.23149871826172
 30
0.0
 11
-63.48519134521484
 21
36.59019470214844
 31
0.0
1001
DBPROPERTIES
1002
{
1000
PbHidd
1002
}
  0
LINE
  5
400
330
1F
100
AcDbEntity
  8
HIDDEN
100
AcDbLine
 10
-63.48519134521484
 20
36.59019470214844
 30
0.0
 11
-62.69013977050781
 21
36.81622695922852
 31
0.0
1001
DBPROPERTIES
1002
{
1000
PbHidd
1002
}
  0
LINE
  5
401
330
1F
100
AcDbEntity
  8
HIDDEN
100
AcDbLine
 10
-62.69013977050781
 20
36.81622695922852
 30
0.0
 11
-61.875
 21
36.89390182495117
 31
0.0
1001
DBPROPERTIES
1002
{
1000
PbHidd
1002
}
  0
LINE
  5
402
330
1F
100
AcDbEntity
  8
HIDDEN
100
AcDbLine
 10
-82.49999999999999
 20
-82.5
 30
0.0
 11
-82.49999999999999
 21
-82.5
 31
0.0
1001
DBPROPERTIES
1002
{
1000
PbHidd
1002
}
  0
LINE
  5
403
330
1F
100
AcDbEntity
  8
THICK
100
AcDbLine
 10
82.50000000000001
 20
-82.50000000000001
 30
0.0
 11
-82.49999999999999
 21
-82.49999999999999
 31
0.0
1001
DBPROPERTIES
1002
{
1000
PbThick
1002
}
  0
LINE
  5
404
330
1F
100
AcDbEntity
  8
HIDDEN
100
AcDbLine
 10
-82.49999999999999
 20
82.5
 30
0.0
 11
-82.49999999999999
 21
82.5
 31
0.0
1001
DBPROPERTIES
1002
{
1000
PbHidd
1002
}
  0
LINE
  5
405
330
1F
100
AcDbEntity
  8
THICK
100
AcDbLine
 10
-82.49999999999999
 20
-82.5
 30
0.0
 11
-82.49999999999999
 21
82.5
 31
0.0
1001
DBPROPERTIES
1002
{
1000
PbThick
1002
}
  0
LINE
  5
406
330
1F
100
AcDbEntity
  8
THICK
100
AcDbLine
 10
-82.49999999999999
 20
82.5
 30
0.0
 11
82.50000000000001
 21
82.5
 31
0.0
1001
DBPROPERTIES
1002
{
1000
PbThick
1002
}
  0
LINE
  5
407
330
1F
100
AcDbEntity
  8
THICK
100
AcDbLine
 10
61.87500000000001
 20
61.87500000000002
 30
0.0
 11
82.50000000000001
 21
82.50000000000003
 31
0.0
1001
DBPROPERTIES
1002
{
1000
PbThick
1002
}
  0
LINE
  5
408
330
1F
100
AcDbEntity
  8
THICK
100
AcDbLine
 10
61.87500000000003
 20
61.875
 30
0.0
 11
61.875
 21
-61.87500000000002
 31
0.0
1001
DBPROPERTIES
1002
{
1000
PbThick
1002
}
  0
LINE
  5
409
330
1F
100
AcDbEntity
  8
THICK
100
AcDbLine
 10
82.50000000000001
 20
-82.5
 30
0.0
 11
41.25000000000001
 21
-41.25000000000002
 31
0.0
1001
DBPROPERTIES
1002
{
1000
PbThick
1002
}
  0
LINE
  5
40A
330
1F
100
AcDbEntity
  8
THICK
100
AcDbLine
 10
-61.87499999999999
 20
61.875
 30
0.0
 11
61.87500000000001
 21
61.875
 31
0.0
1001
DBPROPERTIES
1002
{
1000
PbThick
1002
}
  0
LINE
  5
40B
330
1F
100
AcDbEntity
  8
THICK
100
AcDbLine
 10
-82.49999999999999
 20
82.5
 30
0.0
 11
-41.24999999999999
 21
41.25
 31
0.0
1001
DBPROPERTIES
1002
{
1000
PbThick
1002
}
  0
LINE
  5
40C
330
1F
100
AcDbEntity
  8
THICK
100
AcDbLine
 10
61.87500000000001
 20
-61.87500000000002
 30
0.0
 11
-61.87499999999999
 21
-61.87500000000001
 31
0.0
1001
DBPROPERTIES
1002
{
1000
PbThick
1002
}
  0
LINE
  5
40D
330
1F
100
AcDbEntity
  8
THICK
100
AcDbLine
 10
-82.49999999999999
 20
-82.5
 30
0.0
 11
-61.87499999999999
 21
-61.875
 31
0.0
1001
DBPROPERTIES
1002
{
1000
PbThick
1002
}
  0
LINE
  5
40E
330
1F
100
AcDbEntity
  8
THICK
100
AcDbLine
 10
-61.87499999999999
 20
-61.875
 30
0.0
 11
-61.87499999999998
 21
61.875
 31
0.0
1001
DBPROPERTIES
1002
{
1000
PbThick
1002
}
  0
LINE
  5
40F
330
1F
100
AcDbEntity
  8
THICK
100
AcDbLine
 10
-412.5
 20
0.0
 30
0.0
 11
-412.5
 21
156.0
 31
0.0
1001
DBPROPERTIES
1002
{
1000
PbThick
1002
}
  0
LINE
  5
410
330
1F
100
AcDbEntity
  8
THICK
100
AcDbLine
 10
412.5
 20
0.0
 30
0.0
 11
412.5
 21
-156.0
 31
0.0
1001
DBPROPERTIES
1002
{
1000
PbThick
1002
}
  0
LINE
  5
411
330
1F
100
AcDbEntity
  8
THICK
100
AcDbLine
 10
-288.75
 20
-161.1047795690742
 30
0.0
 11
-288.75
 21
-186.37
 31
0.0
1001
DBPROPERTIES
1002
{
1000
PbThick
1002
}
  0
LINE
  5
412
330
1F
100
AcDbEntity
  8
HIDDEN
100
AcDbLine
 10
-288.75
 20
-186.37
 30
0.0
 11
-288.75
 21
-188.0
 31
0.0
1001
DBPROPERTIES
1002
{
1000
PbHidd
1002
}
  0
LINE
  5
413
330
1F
100
AcDbEntity
  8
HIDDEN
100
AcDbLine
 10
-288.75
 20
-188.0
 30
0.0
 11
-288.75
 21
-188.0
 31
0.0
1001
DBPROPERTIES
1002
{
1000
PbHidd
1002
}
  0
LINE
  5
414
330
1F
100
AcDbEntity
  8
HIDDEN
100
AcDbLine
 10
-288.75
 20
-192.0
 30
0.0
 11
-288.75
 21
-188.0
 31
0.0
1001
DBPROPERTIES
1002
{
1000
PbHidd
1002
}
  0
LINE
  5
415
330
1F
100
AcDbEntity
  8
HIDDEN
100
AcDbLine
 10
-288.75
 20
-192.0
 30
0.0
 11
-288.75
 21
-192.0
 31
0.0
1001
DBPROPERTIES
1002
{
1000
PbHidd
1002
}
  0
LINE
  5
416
330
1F
100
AcDbEntity
  8
HIDDEN
100
AcDbLine
 10
-288.75
 20
-188.0
 30
0.0
 11
-288.75
 21
-188.0
 31
0.0
1001
DBPROPERTIES
1002
{
1000
PbHidd
1002
}
  0
LINE
  5
417
330
1F
100
AcDbEntity
  8
HIDDEN
100
AcDbLine
 10
-292.75
 20
-188.0
 30
0.0
 11
-292.75
 21
-186.37
 31
0.0
1001
DBPROPERTIES
1002
{
1000
PbHidd
1002
}
  0
LINE
  5
418
330
1F
100
AcDbEntity
  8
THICK
100
AcDbLine
 10
-292.75
 20
-186.37
 30
0.0
 11
-292.75
 21
-161.1047795690742
 31
0.0
1001
DBPROPERTIES
1002
{
1000
PbThick
1002
}
  0
LINE
  5
419
330
1F
100
AcDbEntity
  8
HIDDEN
100
AcDbLine
 10
288.75
 20
-188.0
 30
0.0
 11
288.75
 21
-186.37
 31
0.0
1001
DBPROPERTIES
1002
{
1000
PbHidd
1002
}
  0
LINE
  5
41A
330
1F
100
AcDbEntity
  8
THICK
100
AcDbLine
 10
288.75
 20
-186.37
 30
0.0
 11
288.75
 21
-161.1047795690742
 31
0.0
1001
DBPROPERTIES
1002
{
1000
PbThick
1002
}
  0
LINE
  5
41B
330
1F
100
AcDbEntity
  8
HIDDEN
100
AcDbLine
 10
288.75
 20
-188.0
 30
0.0
 11
288.75
 21
-188.0
 31
0.0
1001
DBPROPERTIES
1002
{
1000
PbHidd
1002
}
  0
LINE
  5
41C
330
1F
100
AcDbEntity
  8
HIDDEN
100
AcDbLine
 10
288.75
 20
-192.0
 30
0.0
 11
288.75
 21
-192.0
 31
0.0
1001
DBPROPERTIES
1002
{
1000
PbHidd
1002
}
  0
LINE
  5
41D
330
1F
100
AcDbEntity
  8
HIDDEN
100
AcDbLine
 10
288.75
 20
-188.0
 30
0.0
 11
288.75
 21
-192.0
 31
0.0
1001
DBPROPERTIES
1002
{
1000
PbHidd
1002
}
  0
LINE
  5
41E
330
1F
100
AcDbEntity
  8
HIDDEN
100
AcDbLine
 10
288.75
 20
-188.0
 30
0.0
 11
288.75
 21
-188.0
 31
0.0
1001
DBPROPERTIES
1002
{
1000
PbHidd
1002
}
  0
LINE
  5
41F
330
1F
100
AcDbEntity
  8
HIDDEN
100
AcDbLine
 10
-330.0
 20
-190.37
 30
0.0
 11
330.0
 21
-190.37
 31
0.0
1001
DBPROPERTIES
1002
{
1000
PbHidd
1002
}
  0
LINE
  5
420
330
1F
100
AcDbEntity
  8
HIDDEN
100
AcDbLine
 10
-330.0
 20
-159.12
 30
0.0
 11
-330.0
 21
-159.12
 31
0.0
1001
DBPROPERTIES
1002
{
1000
PbHidd
1002
}
  0
LINE
  5
421
330
1F
100
AcDbEntity
  8
HIDDEN
100
AcDbLine
 10
-330.0
 20
-192.0
 30
0.0
 11
-330.0
 21
-192.0
 31
0.0
1001
DBPROPERTIES
1002
{
1000
PbHidd
1002
}
  0
LINE
  5
422
330
1F
100
AcDbEntity
  8
THICK
100
AcDbLine
 10
-330.0
 20
-192.0
 30
0.0
 11
-330.0
 21
-190.37
 31
0.0
1001
DBPROPERTIES
1002
{
1000
PbThick
1002
}
  0
LINE
  5
423
330
1F
100
AcDbEntity
  8
THICK
100
AcDbLine
 10
-330.0
 20
-190.37
 30
0.0
 11
-330.0
 21
-159.12
 31
0.0
1001
DBPROPERTIES
1002
{
1000
PbThick
1002
}
  0
LINE
  5
424
330
1F
100
AcDbEntity
  8
HIDDEN
100
AcDbLine
 10
330.0
 20
-159.12
 30
0.0
 11
330.0
 21
-159.12
 31
0.0
1001
DBPROPERTIES
1002
{
1000
PbHidd
1002
}
  0
LINE
  5
425
330
1F
100
AcDbEntity
  8
THICK
100
AcDbLine
 10
330.0
 20
-159.12
 30
0.0
 11
330.0
 21
-190.37
 31
0.0
1001
DBPROPERTIES
1002
{
1000
PbThick
1002
}
  0
LINE
  5
426
330
1F
100
AcDbEntity
  8
THICK
100
AcDbLine
 10
330.0
 20
-190.37
 30
0.0
 11
330.0
 21
-192.0
 31
0.0
1001
DBPROPERTIES
1002
{
1000
PbThick
1002
}
  0
LINE
  5
427
330
1F
100
AcDbEntity
  8
HIDDEN
100
AcDbLine
 10
330.0
 20
-192.0
 30
0.0
 11
330.0
 21
-192.0
 31
0.0
1001
DBPROPERTIES
1002
{
1000
PbHidd
1002
}
  0
LINE
  5
428
330
1F
100
AcDbEntity
  8
HIDDEN
100
AcDbLine
 10
326.0
 20
-159.12
 30
0.0
 11
326.0
 21
-159.12
 31
0.0
1001
DBPROPERTIES
1002
{
1000
PbHidd
1002
}
  0
LINE
  5
429
330
1F
100
AcDbEntity
  8
HIDDEN
100
AcDbLine
 10
326.0
 20
-159.12
 30
0.0
 11
326.0
 21
-159.12
 31
0.0
1001
DBPROPERTIES
1002
{
1000
PbHidd
1002
}
  0
LINE
  5
42A
330
1F
100
AcDbEntity
  8
HIDDEN
100
AcDbLine
 10
326.0
 20
-159.12
 30
0.0
 11
326.0
 21
-159.12
 31
0.0
1001
DBPROPERTIES
1002
{
1000
PbHidd
1002
}
  0
LINE
  5
42B
330
1F
100
AcDbEntity
  8
THICK
100
AcDbLine
 10
326.0
 20
-159.12
 30
0.0
 11
330.0
 21
-159.12
 31
0.0
1001
DBPROPERTIES
1002
{
1000
PbThick
1002
}
  0
LINE
  5
42C
330
1F
100
AcDbEntity
  8
HIDDEN
100
AcDbLine
 10
-326.0
 20
-159.12
 30
0.0
 11
-326.0
 21
-159.12
 31
0.0
1001
DBPROPERTIES
1002
{
1000
PbHidd
1002
}
  0
LINE
  5
42D
330
1F
100
AcDbEntity
  8
THICK
100
AcDbLine
 10
-330.0
 20
-159.12
 30
0.0
 11
-326.0
 21
-159.12
 31
0.0
1001
DBPROPERTIES
1002
{
1000
PbThick
1002
}
  0
LINE
  5
42E
330
1F
100
AcDbEntity
  8
HIDDEN
100
AcDbLine
 10
-326.0
 20
-159.12
 30
0.0
 11
-326.0
 21
-159.12
 31
0.0
1001
DBPROPERTIES
1002
{
1000
PbHidd
1002
}
  0
LINE
  5
42F
330
1F
100
AcDbEntity
  8
THICK
100
AcDbLine
 10
330.0
 20
-190.37
 30
0.0
 11
-330.0
 21
-190.37
 31
0.0
1001
DBPROPERTIES
1002
{
1000
PbThick
1002
}
  0
LINE
  5
430
330
1F
100
AcDbEntity
  8
THICK
100
AcDbLine
 10
326.0
 20
-186.37
 30
0.0
 11
326.0
 21
-159.12
 31
0.0
1001
DBPROPERTIES
1002
{
1000
PbThick
1002
}
  0
LINE
  5
431
330
1F
100
AcDbEntity
  8
THICK
100
AcDbLine
 10
-326.0
 20
-186.37
 30
0.0
 11
326.0
 21
-186.37
 31
0.0
1001
DBPROPERTIES
1002
{
1000
PbThick
1002
}
  0
LINE
  5
432
330
1F
100
AcDbEntity
  8
THICK
100
AcDbLine
 10
-326.0
 20
-159.12
 30
0.0
 11
-326.0
 21
-186.37
 31
0.0
1001
DBPROPERTIES
1002
{
1000
PbThick
1002
}
  0
LINE
  5
433
330
1F
100
AcDbEntity
  8
HIDDEN
100
AcDbLine
 10
-326.0
 20
-188.0
 30
0.0
 11
-326.0
 21
-186.37
 31
0.0
1001
DBPROPERTIES
1002
{
1000
PbHidd
1002
}
  0
LINE
  5
434
330
1F
100
AcDbEntity
  8
HIDDEN
100
AcDbLine
 10
-326.0
 20
-188.0
 30
0.0
 11
-326.0
 21
-188.0
 31
0.0
1001
DBPROPERTIES
1002
{
1000
PbHidd
1002
}
  0
LINE
  5
435
330
1F
100
AcDbEntity
  8
HIDDEN
100
AcDbLine
 10
326.0
 20
-186.37
 30
0.0
 11
326.0
 21
-188.0
 31
0.0
1001
DBPROPERTIES
1002
{
1000
PbHidd
1002
}
  0
LINE
  5
436
330
1F
100
AcDbEntity
  8
HIDDEN
100
AcDbLine
 10
-326.0
 20
-188.0
 30
0.0
 11
326.0
 21
-188.0
 31
0.0
1001
DBPROPERTIES
1002
{
1000
PbHidd
1002
}
  0
LINE
  5
437
330
1F
100
AcDbEntity
  8
HIDDEN
100
AcDbLine
 10
-292.75
 20
-188.0
 30
0.0
 11
-292.75
 21
-188.0
 31
0.0
1001
DBPROPERTIES
1002
{
1000
PbHidd
1002
}
  0
LINE
  5
438
330
1F
100
AcDbEntity
  8
HIDDEN
100
AcDbLine
 10
326.0
 20
-188.0
 30
0.0
 11
326.0
 21
-188.0
 31
0.0
1001
DBPROPERTIES
1002
{
1000
PbHidd
1002
}
  0
LINE
  5
439
330
1F
100
AcDbEntity
  8
HIDDEN
100
AcDbLine
 10
292.75
 20
-188.0
 30
0.0
 11
292.75
 21
-188.0
 31
0.0
1001
DBPROPERTIES
1002
{
1000
PbHidd
1002
}
  0
LINE
  5
43A
330
1F
100
AcDbEntity
  8
HIDDEN
100
AcDbLine
 10
41.25000000000001
 20
-188.0
 30
0.0
 11
41.25000000000001
 21
-188.0
 31
0.0
1001
DBPROPERTIES
1002
{
1000
PbHidd
1002
}
  0
LINE
  5
43B
330
1F
100
AcDbEntity
  8
HIDDEN
100
AcDbLine
 10
41.24999999999999
 20
-188.0
 30
0.0
 11
41.24999999999999
 21
-188.0
 31
0.0
1001
DBPROPERTIES
1002
{
1000
PbHidd
1002
}
  0
LINE
  5
43C
330
1F
100
AcDbEntity
  8
HIDDEN
100
AcDbLine
 10
-41.25000000000001
 20
-188.0
 30
0.0
 11
-41.25000000000001
 21
-188.0
 31
0.0
1001
DBPROPERTIES
1002
{
1000
PbHidd
1002
}
  0
LINE
  5
43D
330
1F
100
AcDbEntity
  8
HIDDEN
100
AcDbLine
 10
-41.24999999999999
 20
-188.0
 30
0.0
 11
-41.24999999999999
 21
-188.0
 31
0.0
1001
DBPROPERTIES
1002
{
1000
PbHidd
1002
}
  0
LINE
  5
43E
330
1F
100
AcDbEntity
  8
THICK
100
AcDbLine
 10
-330.0
 20
-192.0
 30
0.0
 11
330.0
 21
-192.0
 31
0.0
1001
DBPROPERTIES
1002
{
1000
PbThick
1002
}
  0
LINE
  5
43F
330
1F
100
AcDbEntity
  8
HIDDEN
100
AcDbLine
 10
-41.24999999999999
 20
-192.0
 30
0.0
 11
-41.24999999999999
 21
-192.0
 31
0.0
1001
DBPROPERTIES
1002
{
1000
PbHidd
1002
}
  0
LINE
  5
440
330
1F
100
AcDbEntity
  8
HIDDEN
100
AcDbLine
 10
-41.25000000000001
 20
-192.0
 30
0.0
 11
-41.25000000000001
 21
-192.0
 31
0.0
1001
DBPROPERTIES
1002
{
1000
PbHidd
1002
}
  0
LINE
  5
441
330
1F
100
AcDbEntity
  8
HIDDEN
100
AcDbLine
 10
41.24999999999999
 20
-192.0
 30
0.0
 11
41.24999999999999
 21
-192.0
 31
0.0
1001
DBPROPERTIES
1002
{
1000
PbHidd
1002
}
  0
LINE
  5
442
330
1F
100
AcDbEntity
  8
HIDDEN
100
AcDbLine
 10
41.25000000000001
 20
-192.0
 30
0.0
 11
41.25000000000001
 21
-192.0
 31
0.0
1001
DBPROPERTIES
1002
{
1000
PbHidd
1002
}
  0
LINE
  5
443
330
1F
100
AcDbEntity
  8
THICK
100
AcDbLine
 10
292.75
 20
-161.1047795690742
 30
0.0
 11
292.75
 21
-186.37
 31
0.0
1001
DBPROPERTIES
1002
{
1000
PbThick
1002
}
  0
LINE
  5
444
330
1F
100
AcDbEntity
  8
HIDDEN
100
AcDbLine
 10
292.75
 20
-186.37
 30
0.0
 11
292.75
 21
-188.0
 31
0.0
1001
DBPROPERTIES
1002
{
1000
PbHidd
1002
}
  0
LINE
  5
445
330
1F
100
AcDbEntity
  8
HIDDEN
100
AcDbLine
 10
-41.24999999999999
 20
-188.0
 30
0.0
 11
-41.24999999999999
 21
-192.0
 31
0.0
1001
DBPROPERTIES
1002
{
1000
PbHidd
1002
}
  0
LINE
  5
446
330
1F
100
AcDbEntity
  8
HIDDEN
100
AcDbLine
 10
41.25000000000001
 20
-192.0
 30
0.0
 11
41.25000000000001
 21
-188.0
 31
0.0
1001
DBPROPERTIES
1002
{
1000
PbHidd
1002
}
  0
LINE
  5
447
330
1F
100
AcDbEntity
  8
THICK
100
AcDbLine
 10
326.0
 20
181.0
 30
0.0
 11
326.0
 21
0.0000000000000443
 31
0.0
1001
DBPROPERTIES
1002
{
1000
PbThick
1002
}
  0
LINE
  5
448
330
1F
100
AcDbEntity
  8
THICK
100
AcDbLine
 10
-326.0
 20
-181.0
 30
0.0
 11
-292.75
 21
-181.0
 31
0.0
1001
DBPROPERTIES
1002
{
1000
PbThick
1002
}
  0
LINE
  5
449
330
1F
100
AcDbEntity
  8
THICK
100
AcDbLine
 10
-288.75
 20
-181.0
 30
0.0
 11
288.75
 21
-181.0
 31
0.0
1001
DBPROPERTIES
1002
{
1000
PbThick
1002
}
  0
LINE
  5
44A
330
1F
100
AcDbEntity
  8
THICK
100
AcDbLine
 10
292.75
 20
-181.0
 30
0.0
 11
326.0
 21
-181.0
 31
0.0
1001
DBPROPERTIES
1002
{
1000
PbThick
1002
}
  0
LINE
  5
44B
330
1F
100
AcDbEntity
  8
HIDDEN
100
AcDbLine
 10
264.75
 20
-192.0
 30
0.0
 11
264.75
 21
-188.0
 31
0.0
1001
DBPROPERTIES
1002
{
1000
PbHidd
1002
}
  0
LINE
  5
44C
330
1F
100
AcDbEntity
  8
HIDDEN
100
AcDbLine
 10
4.749999999999989
 20
-192.0
 30
0.0
 11
4.749999999999989
 21
-188.0
 31
0.0
1001
DBPROPERTIES
1002
{
1000
PbHidd
1002
}
  0
LINE
  5
44D
330
1F
100
AcDbEntity
  8
HIDDEN
100
AcDbLine
 10
-255.25
 20
-192.0
 30
0.0
 11
-255.25
 21
-188.0
 31
0.0
1001
DBPROPERTIES
1002
{
1000
PbHidd
1002
}
  0
LINE
  5
44E
330
1F
100
AcDbEntity
  8
HIDDEN
100
AcDbLine
 10
264.75
 20
-192.0
 30
0.0
 11
264.75
 21
-188.0
 31
0.0
1001
DBPROPERTIES
1002
{
1000
PbHidd
1002
}
  0
LINE
  5
44F
330
1F
100
AcDbEntity
  8
HIDDEN
100
AcDbLine
 10
4.750000000000011
 20
-192.0
 30
0.0
 11
4.750000000000011
 21
-188.0
 31
0.0
1001
DBPROPERTIES
1002
{
1000
PbHidd
1002
}
  0
LINE
  5
450
330
1F
100
AcDbEntity
  8
HIDDEN
100
AcDbLine
 10
-255.25
 20
-192.0
 30
0.0
 11
-255.25
 21
-188.0
 31
0.0
1001
DBPROPERTIES
1002
{
1000
PbHidd
1002
}
  0
LINE
  5
451
330
1F
100
AcDbEntity
  8
THICK
100
AcDbLine
 10
412.5
 20
156.0
 30
0.0
 11
326.0
 21
156.0
 31
0.0
1001
DBPROPERTIES
1002
{
1000
PbThick
1002
}
  0
LINE
  5
452
330
1F
100
AcDbEntity
  8
THICK
100
AcDbLine
 10
-412.5
 20
-156.0
 30
0.0
 11
-326.0
 21
-156.0
 31
0.0
1001
DBPROPERTIES
1002
{
1000
PbThick
1002
}
  0
LINE
  5
453
330
1F
100
AcDbEntity
  8
HIDDEN
100
AcDbLine
 10
-318.0
 20
-177.0
 30
0.0
 11
268.1248168945312
 21
-177.0
 31
0.0
1001
DBPROPERTIES
1002
{
1000
PbHidd
1002
}
  0
LINE
  5
454
330
1F
100
AcDbEntity
  8
HIDDEN
100
AcDbLine
 10
268.125
 20
-177.0
 30
0.0
 11
322.0
 21
-177.0
 31
0.0
1001
DBPROPERTIES
1002
{
1000
PbHidd
1002
}
  0
ARC
  5
455
330
1F
100
AcDbEntity
  8
HIDDEN
100
AcDbCircle
 10
330.0
 20
0.0
 30
0.0
 40
62.40000000000001
100
AcDbArc
 50
60.85734246339503
 51
75.10164620814243
1001
DBPROPERTIES
1002
{
1000
PbHidd
1002
}
  0
ARC
  5
456
330
1F
100
AcDbEntity
  8
HIDDEN
100
AcDbCircle
 10
330.0
 20
0.0
 30
0.0
 40
62.40000000000001
100
AcDbArc
 50
77.48131181865928
 51
89.99998127603165
1001
DBPROPERTIES
1002
{
1000
PbHidd
1002
}
  0
LINE
  5
457
330
1F
100
AcDbEntity
  8
HIDDEN
100
AcDbLine
 10
247.5
 20
-62.40000000000001
 30
0.0
 11
268.1251831054688
 21
-62.40000000000001
 31
0.0
1001
DBPROPERTIES
1002
{
1000
PbHidd
1002
}
  0
LINE
  5
458
330
1F
100
AcDbEntity
  8
HIDDEN
100
AcDbLine
 10
268.125
 20
-62.40000000000001
 30
0.0
 11
330.0
 21
-62.40000000000001
 31
0.0
1001
DBPROPERTIES
1002
{
1000
PbHidd
1002
}
  0
LINE
  5
459
330
1F
100
AcDbEntity
  8
HIDDEN
100
AcDbLine
 10
268.126
 20
62.40000152587891
 30
0.0
 11
268.126
 21
177.0
 31
0.0
1001
DBPROPERTIES
1002
{
1000
PbHidd
1002
}
  0
LINE
  5
45A
330
1F
100
AcDbEntity
  8
HIDDEN
100
AcDbLine
 10
268.126
 20
-177.0
 30
0.0
 11
268.126
 21
-62.40000152587891
 31
0.0
1001
DBPROPERTIES
1002
{
1000
PbHidd
1002
}
  0
LINE
  5
45B
330
1F
100
AcDbEntity
  8
HIDDEN
100
AcDbLine
 10
268.126
 20
-177.0
 30
0.0
 11
268.126
 21
-62.40000152587891
 31
0.0
1001
DBPROPERTIES
1002
{
1000
PbHidd
1002
}
  0
LINE
  5
45C
330
1F
100
AcDbEntity
  8
HIDDEN
100
AcDbLine
 10
268.126
 20
62.40000152587891
 30
0.0
 11
268.126
 21
177.0
 31
0.0
1001
DBPROPERTIES
1002
{
1000
PbHidd
1002
}
  0
LINE
  5
45D
330
1F
100
AcDbEntity
  8
HIDDEN
100
AcDbLine
 10
247.5
 20
62.40000152587891
 30
0.0
 11
268.1248168945312
 21
62.40000152587891
 31
0.0
1001
DBPROPERTIES
1002
{
1000
PbHidd
1002
}
  0
LINE
  5
45E
330
1F
100
AcDbEntity
  8
HIDDEN
100
AcDbLine
 10
268.125
 20
62.40000152587891
 30
0.0
 11
325.4837036132812
 21
62.40000152587891
 31
0.0
1001
DBPROPERTIES
1002
{
1000
PbHidd
1002
}
  0
LINE
  5
45F
330
1F
100
AcDbEntity
  8
HIDDEN
100
AcDbLine
 10
327.9564208984375
 20
62.40000152587891
 30
0.0
 11
330.0
 21
62.40000152587891
 31
0.0
1001
DBPROPERTIES
1002
{
1000
PbHidd
1002
}
  0
LINE
  5
460
330
1F
100
AcDbEntity
  8
HIDDEN
100
AcDbLine
 10
366.9858082890016
 20
39.87522892786962
 30
0.0
 11
367.6834379138502
 21
39.4121914777125
 31
0.0
1001
DBPROPERTIES
1002
{
1000
PbHidd
1002
}
  0
LINE
  5
461
330
1F
100
AcDbEntity
  8
HIDDEN
100
AcDbLine
 10
369.427001953125
 20
109.7626953125
 30
0.0
 11
371.0450134277344
 21
109.8855743408203
 31
0.0
1001
DBPROPERTIES
1002
{
1000
PbHidd
1002
}
  0
LINE
  5
462
330
1F
100
AcDbEntity
  8
HIDDEN
100
AcDbLine
 10
344.5566711425781
 20
86.31800842285156
 30
0.0
 11
346.1748046875
 21
86.90583801269531
 31
0.0
1001
DBPROPERTIES
1002
{
1000
PbHidd
1002
}
  0
LINE
  5
463
330
1F
100
AcDbEntity
  8
HIDDEN
100
AcDbLine
 10
329.0853576660156
 20
61.2340087890625
 30
0.0
 11
330.7033081054688
 21
62.18501281738281
 31
0.0
1001
DBPROPERTIES
1002
{
1000
PbHidd
1002
}
  0
LINE
  5
464
330
1F
100
AcDbEntity
  8
HIDDEN
100
AcDbLine
 10
369.2414855957031
 20
36.59310913085938
 30
0.0
 11
370.8595275878906
 21
37.54416656494141
 31
0.0
1001
DBPROPERTIES
1002
{
1000
PbHidd
1002
}
  0
LINE
  5
465
330
1F
100
AcDbEntity
  8
HIDDEN
100
AcDbLine
 10
364.26171875
 20
-5.250374794006348
 30
0.0
 11
365.8797302246094
 21
-4.100509166717529
 31
0.0
1001
DBPROPERTIES
1002
{
1000
PbHidd
1002
}
  0
LINE
  5
466
330
1F
100
AcDbEntity
  8
HIDDEN
100
AcDbLine
 10
364.2616882324219
 20
-33.28727722167969
 30
0.0
 11
365.8797607421875
 21
-32.13737106323242
 31
0.0
1001
DBPROPERTIES
1002
{
1000
PbHidd
1002
}
  0
LINE
  5
467
330
1F
100
AcDbEntity
  8
HIDDEN
100
AcDbLine
 10
356.0112211770468
 20
-98.87883782407447
 30
0.0
 11
357.6292622522153
 21
-99.24211067907724
 31
0.0
1001
DBPROPERTIES
1002
{
1000
PbHidd
1002
}
  0
LINE
  5
468
330
1F
100
AcDbEntity
  8
HIDDEN
100
AcDbLine
 10
335.5913067305962
 20
-73.38561564806403
 30
0.0
 11
337.2093392303167
 21
-74.17222512872017
 31
0.0
1001
DBPROPERTIES
1002
{
1000
PbHidd
1002
}
  0
LINE
  5
469
330
1F
100
AcDbEntity
  8
HIDDEN
100
AcDbLine
 10
374.0127308982605
 20
-60.38231381831061
 30
0.0
 11
375.6307541327474
 21
-61.16891879465639
 31
0.0
1001
DBPROPERTIES
1002
{
1000
PbHidd
1002
}
  0
LINE
  5
46A
330
1F
100
AcDbEntity
  8
HIDDEN
100
AcDbLine
 10
366.0653995439166
 20
-14.36230483853551
 30
0.0
 11
367.6834388370502
 21
-15.4362454538144
 31
0.0
1001
DBPROPERTIES
1002
{
1000
PbHidd
1002
}
  0
LINE
  5
46B
330
1F
100
AcDbEntity
  8
HIDDEN
100
AcDbLine
 10
363.678095280358
 20
21.36862787510862
 30
0.0
 11
365.2961149790127
 21
20.19306775288555
 31
0.0
1001
DBPROPERTIES
1002
{
1000
PbHidd
1002
}
  0
LINE
  5
46C
330
1F
100
AcDbEntity
  8
HIDDEN
100
AcDbLine
 10
-318.0
 20
177.0
 30
0.0
 11
268.1251831054689
 21
177.0
 31
0.0
1001
DBPROPERTIES
1002
{
1000
PbHidd
1002
}
  0
LINE
  5
46D
330
1F
100
AcDbEntity
  8
HIDDEN
100
AcDbLine
 10
268.125
 20
177.0
 30
0.0
 11
322.0
 21
177.0
 31
0.0
1001
DBPROPERTIES
1002
{
1000
PbHidd
1002
}
  0
LINE
  5
46E
330
1F
100
AcDbEntity
  8
THICK
100
AcDbLine
 10
-412.5
 20
156.0
 30
0.0
 11
-326.0
 21
156.0
 31
0.0
1001
DBPROPERTIES
1002
{
1000
PbThick
1002
}
  0
LINE
  5
46F
330
1F
100
AcDbEntity
  8
THICK
100
AcDbLine
 10
412.5
 20
-156.0
 30
0.0
 11
326.0
 21
-156.0
 31
0.0
1001
DBPROPERTIES
1002
{
1000
PbThick
1002
}
  0
LINE
  5
470
330
1F
100
AcDbEntity
  8
HIDDEN
100
AcDbLine
 10
-263.75
 20
-192.0
 30
0.0
 11
-263.75
 21
-188.0
 31
0.0
1001
DBPROPERTIES
1002
{
1000
PbHidd
1002
}
  0
LINE
  5
471
330
1F
100
AcDbEntity
  8
HIDDEN
100
AcDbLine
 10
-3.75
 20
-192.0
 30
0.0
 11
-3.75
 21
-188.0
 31
0.0
1001
DBPROPERTIES
1002
{
1000
PbHidd
1002
}
  0
LINE
  5
472
330
1F
100
AcDbEntity
  8
HIDDEN
100
AcDbLine
 10
256.25
 20
-192.0
 30
0.0
 11
256.25
 21
-188.0
 31
0.0
1001
DBPROPERTIES
1002
{
1000
PbHidd
1002
}
  0
LINE
  5
473
330
1F
100
AcDbEntity
  8
HIDDEN
100
AcDbLine
 10
-263.75
 20
-192.0
 30
0.0
 11
-263.75
 21
-188.0
 31
0.0
1001
DBPROPERTIES
1002
{
1000
PbHidd
1002
}
  0
LINE
  5
474
330
1F
100
AcDbEntity
  8
HIDDEN
100
AcDbLine
 10
-3.75
 20
-192.0
 30
0.0
 11
-3.75
 21
-188.0
 31
0.0
1001
DBPROPERTIES
1002
{
1000
PbHidd
1002
}
  0
LINE
  5
475
330
1F
100
AcDbEntity
  8
HIDDEN
100
AcDbLine
 10
256.25
 20
-192.0
 30
0.0
 11
256.25
 21
-188.0
 31
0.0
1001
DBPROPERTIES
1002
{
1000
PbHidd
1002
}
  0
LINE
  5
476
330
1F
100
AcDbEntity
  8
HIDDEN
100
AcDbLine
 10
99.0
 20
-192.0
 30
0.0
 11
99.0
 21
-191.3333282470703
 31
0.0
1001
DBPROPERTIES
1002
{
1000
PbHidd
1002
}
  0
LINE
  5
477
330
1F
100
AcDbEntity
  8
HIDDEN
100
AcDbLine
 10
99.0
 20
-191.3333282470703
 30
0.0
 11
99.0
 21
-190.6666717529297
 31
0.0
1001
DBPROPERTIES
1002
{
1000
PbHidd
1002
}
  0
LINE
  5
478
330
1F
100
AcDbEntity
  8
HIDDEN
100
AcDbLine
 10
99.0
 20
-190.6666717529297
 30
0.0
 11
99.0
 21
-190.0
 31
0.0
1001
DBPROPERTIES
1002
{
1000
PbHidd
1002
}
  0
LINE
  5
479
330
1F
100
AcDbEntity
  8
HIDDEN
100
AcDbLine
 10
99.0
 20
-190.0
 30
0.0
 11
99.0
 21
-189.3333282470703
 31
0.0
1001
DBPROPERTIES
1002
{
1000
PbHidd
1002
}
  0
LINE
  5
47A
330
1F
100
AcDbEntity
  8
HIDDEN
100
AcDbLine
 10
99.0
 20
-189.3333282470703
 30
0.0
 11
99.0
 21
-188.6666717529297
 31
0.0
1001
DBPROPERTIES
1002
{
1000
PbHidd
1002
}
  0
LINE
  5
47B
330
1F
100
AcDbEntity
  8
HIDDEN
100
AcDbLine
 10
99.0
 20
-188.6666717529297
 30
0.0
 11
99.0
 21
-188.0
 31
0.0
1001
DBPROPERTIES
1002
{
1000
PbHidd
1002
}
  0
LINE
  5
47C
330
1F
100
AcDbEntity
  8
HIDDEN
100
AcDbLine
 10
-99.0
 20
-192.0
 30
0.0
 11
-99.0
 21
-191.3333282470703
 31
0.0
1001
DBPROPERTIES
1002
{
1000
PbHidd
1002
}
  0
LINE
  5
47D
330
1F
100
AcDbEntity
  8
HIDDEN
100
AcDbLine
 10
-99.0
 20
-191.3333282470703
 30
0.0
 11
-99.0
 21
-190.6666717529297
 31
0.0
1001
DBPROPERTIES
1002
{
1000
PbHidd
1002
}
  0
LINE
  5
47E
330
1F
100
AcDbEntity
  8
HIDDEN
100
AcDbLine
 10
-99.0
 20
-190.6666717529297
 30
0.0
 11
-99.0
 21
-190.0
 31
0.0
1001
DBPROPERTIES
1002
{
1000
PbHidd
1002
}
  0
LINE
  5
47F
330
1F
100
AcDbEntity
  8
HIDDEN
100
AcDbLine
 10
-99.0
 20
-190.0
 30
0.0
 11
-99.0
 21
-189.3333282470703
 31
0.0
1001
DBPROPERTIES
1002
{
1000
PbHidd
1002
}
  0
LINE
  5
480
330
1F
100
AcDbEntity
  8
HIDDEN
100
AcDbLine
 10
-99.0
 20
-189.3333282470703
 30
0.0
 11
-99.0
 21
-188.6666717529297
 31
0.0
1001
DBPROPERTIES
1002
{
1000
PbHidd
1002
}
  0
LINE
  5
481
330
1F
100
AcDbEntity
  8
HIDDEN
100
AcDbLine
 10
-99.0
 20
-188.6666717529297
 30
0.0
 11
-99.0
 21
-188.0
 31
0.0
1001
DBPROPERTIES
1002
{
1000
PbHidd
1002
}
  0
LINE
  5
482
330
1F
100
AcDbEntity
  8
THICK
100
AcDbLine
 10
-326.0
 20
181.0
 30
0.0
 11
326.0
 21
181.0
 31
0.0
1001
DBPROPERTIES
1002
{
1000
PbThick
1002
}
  0
ENDSEC
  0
SECTION
  2
OBJECTS
  0
DICTIONARY
  5
C
330
0
100
AcDbDictionary
  3
ACAD_GROUP
350
D
  3
ACAD_LAYOUT
350
1A
  3
ACAD_MATERIAL
350
43
  3
ACAD_MLEADERSTYLE
350
6B
  3
ACAD_MLINESTYLE
350
17
  3
ACAD_PLOTSETTINGS
350
19
  3
ACAD_SCALELIST
350
47
  3
ACAD_VISUALSTYLE
350
2A
  3
ACDBVARIABLEDICTIONARY
350
483
1001
ACAD
1000
TREAT_AS_HARD
1070
     0
  0
DICTIONARY
  5
D
102
{ACAD_REACTORS
330
C
102
}
330
C
100
AcDbDictionary
1001
ACAD
1000
TREAT_AS_HARD
1070
     0
  0
DICTIONARY
  5
1A
102
{ACAD_REACTORS
330
C
102
}
330
C
100
AcDbDictionary
1001
ACAD
1000
TREAT_AS_HARD
1070
     0
  0
DICTIONARY
  5
43
102
{ACAD_REACTORS
330
C
102
}
330
C
100
AcDbDictionary
  3
BYBLOCK
350
45
  3
BYLAYER
350
44
  3
GLOBAL
350
46
1001
ACAD
1000
TREAT_AS_HARD
1070
     0
  0
DICTIONARY
  5
6B
102
{ACAD_REACTORS
330
C
102
}
330
C
100
AcDbDictionary
  3
STANDARD
350
6C
1001
ACAD
1000
TREAT_AS_HARD
1070
     0
  0
DICTIONARY
  5
17
102
{ACAD_REACTORS
330
C
102
}
330
C
100
AcDbDictionary
  3
STANDARD
350
18
1001
ACAD
1000
TREAT_AS_HARD
1070
     0
  0
DICTIONARY
  5
19
102
{ACAD_REACTORS
330
C
102
}
330
C
100
AcDbDictionary
1001
ACAD
1000
TREAT_AS_HARD
1070
     0
  0
DICTIONARY
  5
47
102
{ACAD_REACTORS
330
C
102
}
330
C
100
AcDbDictionary
  3
A0
350
48
  3
A1
350
49
  3
A2
350
4A
  3
A3
350
4B
  3
A4
350
4C
  3
A5
350
4D
  3
A6
350
4E
  3
A7
350
4F
  3
A8
350
50
  3
A9
350
51
  3
B0
350
52
  3
B1
350
53
  3
B2
350
54
  3
B3
350
55
  3
B4
350
56
  3
B5
350
57
  3
B6
350
58
  3
B7
350
59
  3
B8
350
5A
  3
B9
350
5B
  3
C0
350
5C
  3
C1
350
5D
  3
C2
350
5E
  3
C3
350
5F
  3
C4
350
60
  3
C5
350
61
  3
C6
350
62
  3
C7
350
63
  3
C8
350
64
  3
C9
350
65
  3
D0
350
66
  3
D1
350
67
  3
D2
350
68
1001
ACAD
1000
TREAT_AS_HARD
1070
     0
  0
DICTIONARY
  5
2A
102
{ACAD_REACTORS
330
C
102
}
330
C
100
AcDbDictionary
  3
2DWIREFRAME
350
2F
  3
BASIC
350
32
  3
BRIGHTEN
350
36
  3
COLORCHANGE
350
3A
  3
CONCEPTUAL
350
34
  3
DIM
350
35
  3
EDGECOLOROFF
350
3D
  3
FACEPATTERN
350
39
  3
FLAT
350
2B
  3
FLATWITHEDGES
350
2C
  3
GOURAUD
350
2D
  3
GOURAUDWITHEDGES
350
2E
  3
HIDDEN
350
31
  3
JITTEROFF
350
3B
  3
LINEPATTERN
350
38
  3
OVERHANGOFF
350
3C
  3
REALISTIC
350
33
  3
SHADED
350
42
  3
SHADED_WITH_EDGES
350
41
  3
SHADES_OF_GRAY
350
3E
  3
SKETCHY
350
3F
  3
THICKEN
350
37
  3
WIREFRAME
350
30
  3
X-RAY
350
40
1001
ACAD
1000
TREAT_AS_HARD
1070
     0
  0
DICTIONARY
  5
483
102
{ACAD_REACTORS
330
C
102
}
330
C
100
AcDbDictionary
  3
CANNOSCALE
350
48E
  3
CENTEREXE
350
48A
  3
CENTERLTYPEFILE
350
48B
  3
CMLEADERSTYLE
350
485
  3
CTABLESTYLE
350
484
  3
DIMASSOC
350
48C
  3
HIDETEXT
350
48D
  3
MSLTSCALE
350
48F
  3
PSOLHEIGHT
350
487
  3
PSOLWIDTH
350
486
1001
ACAD
1000
TREAT_AS_HARD
1070
     0
  0
MATERIAL
  5
45
102
{ACAD_REACTORS
330
43
102
}
102
{ACAD_XDICTIONARY
360
492
102
}
330
43
100
AcDbMaterial
  1
BYBLOCK
  0
MATERIAL
  5
44
102
{ACAD_REACTORS
330
43
102
}
102
{ACAD_XDICTIONARY
360
490
102
}
330
43
100
AcDbMaterial
  1
BYLAYER
  0
MATERIAL
  5
46
102
{ACAD_REACTORS
330
43
102
}
102
{ACAD_XDICTIONARY
360
494
102
}
330
43
100
AcDbMaterial
  1
GLOBAL
  0
ACAD_PROXY_OBJECT
  5
6C
102
{ACAD_REACTORS
330
6B
102
}
330
6B
100
AcDbZombieObject
 90
      499
 91
      505
 93
      610
310
40901902A4063FBFFFFFE0000000000000020400000000000020404214DD185B99185C990000000000000104090141901A00000000000004100000000000000041025764000000000000039000
340
14
340
0
340
11
340
0
 94
        0
1001
ACAD_MLEADERVER
1070
     2
  0
MLINESTYLE
  5
18
102
{ACAD_REACTORS
330
17
102
}
330
17
100
AcDbMlineStyle
  2
Standard
 70
     0
  3

 62
   256
 51
90.0
 52
90.0
 71
     2
 49
0.5
 62
   256
  6
BYLAYER
 49
-0.5
 62
   256
  6
BYLAYER
  0
ACAD_PROXY_OBJECT
  5
48
102
{ACAD_REACTORS
330
47
102
}
330
47
100
AcDbZombieObject
 90
      499
 91
      503
 93
       41
310
903313A31580
  0
ACAD_PROXY_OBJECT
  5
49
102
{ACAD_REACTORS
330
47
102
}
330
47
100
AcDbZombieObject
 90
      499
 91
      503
 93
      105
310
903313A324000000000000004000
  0
ACAD_PROXY_OBJECT
  5
4A
102
{ACAD_REACTORS
330
47
102
}
330
47
100
AcDbZombieObject
 90
      499
 91
      503
 93
      105
310
903313A344000000000000104000
  0
ACAD_PROXY_OBJECT
  5
4B
102
{ACAD_REACTORS
330
47
102
}
330
47
100
AcDbZombieObject
 90
      499
 91
      503
 93
      105
310
903313A354000000000000144000
  0
ACAD_PROXY_OBJECT
  5
4C
102
{ACAD_REACTORS
330
47
102
}
330
47
100
AcDbZombieObject
 90
      499
 91
      503
 93
      105
310
903313A384000000000000204000
  0
ACAD_PROXY_OBJECT
  5
4D
102
{ACAD_REACTORS
330
47
102
}
330
47
100
AcDbZombieObject
 90
      499
 91
      503
 93
      113
310
904313A31304000000000000244000
  0
ACAD_PROXY_OBJECT
  5
4E
102
{ACAD_REACTORS
330
47
102
}
330
47
100
AcDbZombieObject
 90
      499
 91
      503
 93
      113
310
904313A31364000000000000304000
  0
ACAD_PROXY_OBJECT
  5
4F
102
{ACAD_REACTORS
330
47
102
}
330
47
100
AcDbZombieObject
 90
      499
 91
      503
 93
      113
310
904313A32304000000000000344000
  0
ACAD_PROXY_OBJECT
  5
50
102
{ACAD_REACTORS
330
47
102
}
330
47
100
AcDbZombieObject
 90
      499
 91
      503
 93
      113
310
904313A333040000000000003E4000
  0
ACAD_PROXY_OBJECT
  5
51
102
{ACAD_REACTORS
330
47
102
}
330
47
100
AcDbZombieObject
 90
      499
 91
      503
 93
      113
310
904313A34304000000000000444000
  0
ACAD_PROXY_OBJECT
  5
52
102
{ACAD_REACTORS
330
47
102
}
330
47
100
AcDbZombieObject
 90
      499
 91
      503
 93
      113
310
904313A35304000000000000494000
  0
ACAD_PROXY_OBJECT
  5
53
102
{ACAD_REACTORS
330
47
102
}
330
47
100
AcDbZombieObject
 90
      499
 91
      503
 93
      121
310
905313A3130304000000000000594000
  0
ACAD_PROXY_OBJECT
  5
54
102
{ACAD_REACTORS
330
47
102
}
330
47
100
AcDbZombieObject
 90
      499
 91
      503
 93
      105
310
903323A310000000000000010100
  0
ACAD_PROXY_OBJECT
  5
55
102
{ACAD_REACTORS
330
47
102
}
330
47
100
AcDbZombieObject
 90
      499
 91
      503
 93
      105
310
903343A310000000000000410100
  0
ACAD_PROXY_OBJECT
  5
56
102
{ACAD_REACTORS
330
47
102
}
330
47
100
AcDbZombieObject
 90
      499
 91
      503
 93
      105
310
903383A310000000000000810100
  0
ACAD_PROXY_OBJECT
  5
57
102
{ACAD_REACTORS
330
47
102
}
330
47
100
AcDbZombieObject
 90
      499
 91
      503
 93
      113
310
90431303A310000000000000910100
  0
ACAD_PROXY_OBJECT
  5
58
102
{ACAD_REACTORS
330
47
102
}
330
47
100
AcDbZombieObject
 90
      499
 91
      503
 93
      121
310
9053130303A310000000000001650100
  0
ACAD_PROXY_OBJECT
  5
59
102
{ACAD_REACTORS
330
47
102
}
330
47
100
AcDbZombieObject
 90
      499
 91
      503
 93
      257
310
90E312F31323822203D2031272D3022000000000000200FC000000000000284000
  0
ACAD_PROXY_OBJECT
  5
5A
102
{ACAD_REACTORS
330
47
102
}
330
47
100
AcDbZombieObject
 90
      499
 91
      503
 93
      249
310
90D312F363422203D2031272D3022000000000000240FC000000000000284000
  0
ACAD_PROXY_OBJECT
  5
5B
102
{ACAD_REACTORS
330
47
102
}
330
47
100
AcDbZombieObject
 90
      499
 91
      503
 93
      249
310
90D312F333222203D2031272D3022000000000000280FC000000000000284000
  0
ACAD_PROXY_OBJECT
  5
5C
102
{ACAD_REACTORS
330
47
102
}
330
47
100
AcDbZombieObject
 90
      499
 91
      503
 93
      249
310
90D312F313622203D2031272D30220000000000002C0FC000000000000284000
  0
ACAD_PROXY_OBJECT
  5
5D
102
{ACAD_REACTORS
330
47
102
}
330
47
100
AcDbZombieObject
 90
      499
 91
      503
 93
      249
310
90D332F333222203D2031272D30220000000000002E0FC000000000000284000
  0
ACAD_PROXY_OBJECT
  5
5E
102
{ACAD_REACTORS
330
47
102
}
330
47
100
AcDbZombieObject
 90
      499
 91
      503
 93
      241
310
90C312F3822203D2031272D3022000000000000300FC000000000000284000
  0
ACAD_PROXY_OBJECT
  5
5F
102
{ACAD_REACTORS
330
47
102
}
330
47
100
AcDbZombieObject
 90
      499
 91
      503
 93
      249
310
90D332F313622203D2031272D3022000000000000320FC000000000000284000
  0
ACAD_PROXY_OBJECT
  5
60
102
{ACAD_REACTORS
330
47
102
}
330
47
100
AcDbZombieObject
 90
      499
 91
      503
 93
      241
310
90C312F3422203D2031272D3022000000000000340FC000000000000284000
  0
ACAD_PROXY_OBJECT
  5
61
102
{ACAD_REACTORS
330
47
102
}
330
47
100
AcDbZombieObject
 90
      499
 91
      503
 93
      241
310
90C332F3822203D2031272D3022000000000000360FC000000000000284000
  0
ACAD_PROXY_OBJECT
  5
62
102
{ACAD_REACTORS
330
47
102
}
330
47
100
AcDbZombieObject
 90
      499
 91
      503
 93
      241
310
90C312F3222203D2031272D3022000000000000380FC000000000000284000
  0
ACAD_PROXY_OBJECT
  5
63
102
{ACAD_REACTORS
330
47
102
}
330
47
100
AcDbZombieObject
 90
      499
 91
      503
 93
      241
310
90C332F3422203D2031272D30220000000000003A0FC000000000000284000
  0
ACAD_PROXY_OBJECT
  5
64
102
{ACAD_REACTORS
330
47
102
}
330
47
100
AcDbZombieObject
 90
      499
 91
      503
 93
      161
310
90A3122203D2031272D30224000000000000284000
  0
ACAD_PROXY_OBJECT
  5
65
102
{ACAD_REACTORS
330
47
102
}
330
47
100
AcDbZombieObject
 90
      499
 91
      503
 93
      257
310
90E312D312F3222203D2031272D30220000000000003E0FC000000000000284000
  0
ACAD_PROXY_OBJECT
  5
66
102
{ACAD_REACTORS
330
47
102
}
330
47
100
AcDbZombieObject
 90
      499
 91
      503
 93
      225
310
90A3322203D2031272D302200000000000002100000000000000284000
  0
ACAD_PROXY_OBJECT
  5
67
102
{ACAD_REACTORS
330
47
102
}
330
47
100
AcDbZombieObject
 90
      499
 91
      503
 93
      225
310
90A3622203D2031272D302200000000000006100000000000000284000
  0
ACAD_PROXY_OBJECT
  5
68
102
{ACAD_REACTORS
330
47
102
}
330
47
100
AcDbZombieObject
 90
      499
 91
      503
 93
      249
310
90D31272D3022203D2031272D30220000000000000A100000000000000284000
  0
ACAD_PROXY_OBJECT
  5
2F
102
{ACAD_REACTORS
330
2A
102
}
330
2A
100
AcDbZombieObject
 90
      499
 91
      501
 93
      436
310
42CC9915DA5C99599C985B595049028333333333333E33F0000000000000F90107901411070040501600405405064090741402480A0340
1001
ACAD
1000
AcDbSavedByObjectVersion
1070
     0
  0
ACAD_PROXY_OBJECT
  5
32
102
{ACAD_REACTORS
330
2A
102
}
330
2A
100
AcDbZombieObject
 90
      499
 91
      501
 93
      388
310
4150985CDA58D07406404333333333333E33F0000000000000F90107A41107004050150841D405064090741402480A0350
1001
ACAD
1000
AcDbSavedByObjectVersion
1070
     0
  0
ACAD_PROXY_OBJECT
  5
36
102
{ACAD_REACTORS
330
2A
102
}
330
2A
100
AcDbZombieObject
 90
      499
 91
      501
 93
      428
310
42109C9A59DA1D195B90C409028333333333333E33F0000000000000F9010790141107004050150841D405064090741402480A029950
1001
ACAD
1000
AcDbSavedByObjectVersion
1070
     0
  0
ACAD_PROXY_OBJECT
  5
3A
102
{ACAD_REACTORS
330
2A
102
}
330
2A
100
AcDbZombieObject
 90
      499
 91
      501
 93
      452
310
42D0DBDB1BDC90DA185B99D95104090240C333333333333E33F0000000000000F90108901411070040501508421405064090741402480A0350
1001
ACAD
1000
AcDbSavedByObjectVersion
1070
     0
  0
ACAD_PROXY_OBJECT
  5
34
102
{ACAD_REACTORS
330
2A
102
}
330
2A
100
AcDbZombieObject
 90
      499
 91
      501
 93
      500
310
4290DBDB98D95C1D1D585B10940D028333333333333E33F0000000000000F90107902409070040501000000000018199010841D405064090740C02480A0340
1001
ACAD
1000
AcDbSavedByObjectVersion
1070
     0
  0
ACAD_PROXY_OBJECT
  5
35
102
{ACAD_REACTORS
330
2A
102
}
330
2A
100
AcDbZombieObject
 90
      499
 91
      501
 93
      412
310
40D11A5B50B409028333333333333E33F0000000000000F9010790141107004050150841D405064090741402480A02677FFFFFD0
1001
ACAD
1000
AcDbSavedByObjectVersion
1070
     0
  0
ACAD_PROXY_OBJECT
  5
3D
102
{ACAD_REACTORS
330
2A
102
}
330
2A
100
AcDbZombieObject
 90
      499
 91
      501
 93
      452
310
43115919D950DBDB1BDC93D999916409028333333333333E33F0000000000000F9010790141107004050150841D405064090741402480A0350
1001
ACAD
1000
AcDbSavedByObjectVersion
1070
     0
  0
ACAD_PROXY_OBJECT
  5
39
102
{ACAD_REACTORS
330
2A
102
}
330
2A
100
AcDbZombieObject
 90
      499
 91
      501
 93
      444
310
42D19858D95C185D1D195C9B90F409028333333333333E33F0000000000000F9010790141107004050150841D405064090741402480A0350
1001
ACAD
1000
AcDbSavedByObjectVersion
1070
     0
  0
ACAD_PROXY_OBJECT
  5
2B
102
{ACAD_REACTORS
330
2A
102
}
330
2A
100
AcDbZombieObject
 90
      499
 91
      501
 93
      380
310
41119B185D240901404333333333333E33F0000000000000F9010740A907004050150841D405064090741402480A1B50
1001
ACAD
1000
AcDbSavedByObjectVersion
1070
     0
  0
ACAD_PROXY_OBJECT
  5
2C
102
{ACAD_REACTORS
330
2A
102
}
330
2A
100
AcDbZombieObject
 90
      499
 91
      501
 93
      468
310
43519B185D15DA5D1A115919D95CD0140901404333333333333E33F0000000000000F90107409019070040501600405405064090741402480A1B50
1001
ACAD
1000
AcDbSavedByObjectVersion
1070
     0
  0
ACAD_PROXY_OBJECT
  5
2D
102
{ACAD_REACTORS
330
2A
102
}
330
2A
100
AcDbZombieObject
 90
      499
 91
      501
 93
      404
310
41D1DBDD5C985D5910240902404333333333333E33F0000000000000F9010740A9070040501641D405064090741402480A1B50
1001
ACAD
1000
AcDbSavedByObjectVersion
1070
     0
  0
ACAD_PROXY_OBJECT
  5
2E
102
{ACAD_REACTORS
330
2A
102
}
330
2A
100
AcDbZombieObject
 90
      499
 91
      501
 93
      492
310
4411DBDD5C985D5915DA5D1A115919D95CD0340902404333333333333E33F0000000000000F90107409019070040501600405405064090741402480A1B50
1001
ACAD
1000
AcDbSavedByObjectVersion
1070
     0
  0
ACAD_PROXY_OBJECT
  5
31
102
{ACAD_REACTORS
330
2A
102
}
330
2A
100
AcDbZombieObject
 90
      499
 91
      501
 93
      476
310
41921A5919195B90640502408333333333333E33F0000000000000F901079024090700405020000000000001110200405405064090740C02480A0340
1001
ACAD
1000
AcDbSavedByObjectVersion
1070
     0
  0
ACAD_PROXY_OBJECT
  5
3B
102
{ACAD_REACTORS
330
2A
102
}
330
2A
100
AcDbZombieObject
 90
      499
 91
      501
 93
      428
310
42529A5D1D195C93D999914409028333333333333E33F0000000000000F9010790141107004050150A41D405064090741402480A0350
1001
ACAD
1000
AcDbSavedByObjectVersion
1070
     0
  0
ACAD_PROXY_OBJECT
  5
38
102
{ACAD_REACTORS
330
2A
102
}
330
2A
100
AcDbZombieObject
 90
      499
 91
      501
 93
      444
310
42D31A5B995C185D1D195C9B90E409028333333333333E33F0000000000000F9010790141107004050750841D405064090741402483A0350
1001
ACAD
1000
AcDbSavedByObjectVersion
1070
     0
  0
ACAD_PROXY_OBJECT
  5
3C
102
{ACAD_REACTORS
330
2A
102
}
330
2A
100
AcDbZombieObject
 90
      499
 91
      501
 93
      444
310
42D3DD995C9A185B99D3D999915409028333333333333E33F0000000000000F9010790141107004050150941D405064090741402480A0350
1001
ACAD
1000
AcDbSavedByObjectVersion
1070
     0
  0
ACAD_PROXY_OBJECT
  5
33
102
{ACAD_REACTORS
330
2A
102
}
330
2A
100
AcDbZombieObject
 90
      499
 91
      501
 93
      428
310
425499585B1A5CDD1A58D08409038333333333333E33F0000000000000F9010740A907004050150800405405064090740C02480A1B40
1001
ACAD
1000
AcDbSavedByObjectVersion
1070
     0
  0
ACAD_PROXY_OBJECT
  5
42
102
{ACAD_REACTORS
330
2A
102
}
330
2A
100
AcDbZombieObject
 90
      499
 91
      501
 93
      420
310
4194DA1859195911B40902404333333333333E33F0000000000000F9010740A41107004050150800405405064090840C02480A0B40
1001
ACAD
1000
AcDbSavedByObjectVersion
1070
     0
  0
ACAD_PROXY_OBJECT
  5
41
102
{ACAD_REACTORS
330
2A
102
}
330
2A
100
AcDbZombieObject
 90
      499
 91
      501
 93
      516
310
4454DA18591959081DDA5D1A08195919D95CD1A40902404333333333333E33F0000000000000F901074090142907004050250800405405064090740C02480A0B40
1001
ACAD
1000
AcDbSavedByObjectVersion
1070
     0
  0
ACAD_PROXY_OBJECT
  5
3E
102
{ACAD_REACTORS
330
2A
102
}
330
2A
100
AcDbZombieObject
 90
      499
 91
      501
 93
      532
310
4394DA1859195CC81BD98811DC985E5174090240C333333333333E33F0000000000000F901079024090741D01000000000000111010841D405064090740C02480A0340
1001
ACAD
1000
AcDbSavedByObjectVersion
1070
     0
  0
ACAD_PROXY_OBJECT
  5
3F
102
{ACAD_REACTORS
330
2A
102
}
330
2A
100
AcDbZombieObject
 90
      499
 91
      501
 93
      476
310
41D4DAD95D18DA1E51840502408333333333333E33F0000000000000F901079024090741D01000000000000111010B41D405064090741802480A0340
1001
ACAD
1000
AcDbSavedByObjectVersion
1070
     0
  0
ACAD_PROXY_OBJECT
  5
37
102
{ACAD_REACTORS
330
2A
102
}
330
2A
100
AcDbZombieObject
 90
      499
 91
      501
 93
      412
310
41D51A1A58DAD95B90D409028333333333333E33F0000000000000F9010790141107004050150C41D405064090741402480A0350
1001
ACAD
1000
AcDbSavedByObjectVersion
1070
     0
  0
ACAD_PROXY_OBJECT
  5
30
102
{ACAD_REACTORS
330
2A
102
}
330
2A
100
AcDbZombieObject
 90
      499
 91
      501
 93
      420
310
4255DA5C99599C985B595059028333333333333E33F0000000000000F90107901411070040501600405405064090740C02480A0340
1001
ACAD
1000
AcDbSavedByObjectVersion
1070
     0
  0
ACAD_PROXY_OBJECT
  5
40
102
{ACAD_REACTORS
330
2A
102
}
330
2A
100
AcDbZombieObject
 90
      499
 91
      501
 93
      404
310
41560B54985E51940902404000000000000E03F0000000000000F9010740501907004050150841D405064090740C02480A1B40
1001
ACAD
1000
AcDbSavedByObjectVersion
1070
     0
  0
DICTIONARYVAR
  5
48E
102
{ACAD_REACTORS
330
483
102
}
330
483
100
DictionaryVariables
280
     0
  1
1:1
  0
DICTIONARYVAR
  5
48A
102
{ACAD_REACTORS
330
483
102
}
330
483
100
DictionaryVariables
280
     0
  1
3.500000
  0
DICTIONARYVAR
  5
48B
102
{ACAD_REACTORS
330
483
102
}
330
483
100
DictionaryVariables
280
     0
  1
acadiso.lin
  0
DICTIONARYVAR
  5
485
102
{ACAD_REACTORS
330
483
102
}
330
483
100
DictionaryVariables
280
     0
  1
Standard
  0
DICTIONARYVAR
  5
484
102
{ACAD_REACTORS
330
483
102
}
330
483
100
DictionaryVariables
280
     0
  1
Standard
  0
DICTIONARYVAR
  5
48C
102
{ACAD_REACTORS
330
483
102
}
330
483
100
DictionaryVariables
280
     0
  1
2
  0
DICTIONARYVAR
  5
48D
102
{ACAD_REACTORS
330
483
102
}
330
483
100
DictionaryVariables
280
     0
  1
1
  0
DICTIONARYVAR
  5
48F
102
{ACAD_REACTORS
330
483
102
}
330
483
100
DictionaryVariables
280
     0
  1
1
  0
DICTIONARYVAR
  5
487
102
{ACAD_REACTORS
330
483
102
}
330
483
100
DictionaryVariables
280
     0
  1
80.000000
  0
DICTIONARYVAR
  5
486
102
{ACAD_REACTORS
330
483
102
}
330
483
100
DictionaryVariables
280
     0
  1
5.000000
  0
DICTIONARY
  5
492
330
45
100
AcDbDictionary
  3
ACAD_XREC_ROUNDTRIP
360
493
1001
ACAD
1000
TREAT_AS_HARD
1070
     1
  0
DICTIONARY
  5
490
330
44
100
AcDbDictionary
  3
ACAD_XREC_ROUNDTRIP
360
491
1001
ACAD
1000
TREAT_AS_HARD
1070
     1
  0
DICTIONARY
  5
494
330
46
100
AcDbDictionary
  3
ACAD_XREC_ROUNDTRIP
360
495
1001
ACAD
1000
TREAT_AS_HARD
1070
     1
  0
XRECORD
  5
493
102
{ACAD_REACTORS
330
492
102
}
330
492
100
AcDbXrecord
102
MATERIAL
148
0.0
149
0.0
149
0.0
 93
        0
 94
      127
282
     0
 72
     1
 77
     1
171
     1
175
     1
179
     1
273
     0
  0
XRECORD
  5
491
102
{ACAD_REACTORS
330
490
102
}
330
490
100
AcDbXrecord
102
MATERIAL
148
0.0
149
0.0
149
0.0
 93
        0
 94
      127
282
     0
 72
     1
 77
     1
171
     1
175
     1
179
     1
273
     0
  0
XRECORD
  5
495
102
{ACAD_REACTORS
330
494
102
}
330
494
100
AcDbXrecord
102
MATERIAL
148
0.0
149
0.0
149
0.0
 93
        0
 94
      127
282
     0
 72
     1
 77
     1
171
     1
175
     1
179
     1
273
     0
  0
ENDSEC
  0
EOF
