  0
SECTION
  2
HEADER
  9
$ACADVER
  1
AC1012
  9
$DWGCODEPAGE
  3
ansi_1252
  9
$INSBASE
 10
0.0
 20
0.0
 30
0.0
  9
$EXTMIN
 10
1.000000000000000E+20
 20
1.000000000000000E+20
 30
1.000000000000000E+20
  9
$EXTMAX
 10
-1.000000000000000E+20
 20
-1.000000000000000E+20
 30
-1.000000000000000E+20
  9
$LIMMIN
 10
0.0
 20
0.0
  9
$LIMMAX
 10
420.0
 20
297.0
  9
$ORTHOMODE
 70
     0
  9
$REGENMODE
 70
     1
  9
$FILLMODE
 70
     1
  9
$QTEXTMODE
 70
     0
  9
$MIRRTEXT
 70
     1
  9
$DRAGMODE
 70
     2
  9
$LTSCALE
 40
1.0
  9
$OSMODE
 70
    37
  9
$ATTMODE
 70
     1
  9
$TEXTSIZE
 40
2.5
  9
$TRACEWID
 40
1.0
  9
$TEXTSTYLE
  7
STANDARD
  9
$CLAYER
  8
0
  9
$CELTYPE
  6
BYLAYER
  9
$CECOLOR
 62
   256
  9
$CELTSCALE
 40
1.0
  9
$DELOBJ
 70
     1
  9
$DISPSILH
 70
     0
  9
$DIMSCALE
 40
1.0
  9
$DIMASZ
 40
2.5
  9
$DIMEXO
 40
0.625
  9
$DIMDLI
 40
3.75
  9
$DIMRND
 40
0.0
  9
$DIMDLE
 40
0.0
  9
$DIMEXE
 40
1.25
  9
$DIMTP
 40
0.0
  9
$DIMTM
 40
0.0
  9
$DIMTXT
 40
2.5
  9
$DIMCEN
 40
2.5
  9
$DIMTSZ
 40
0.0
  9
$DIMTOL
 70
     0
  9
$DIMLIM
 70
     0
  9
$DIMTIH
 70
     0
  9
$DIMTOH
 70
     0
  9
$DIMSE1
 70
     0
  9
$DIMSE2
 70
     0
  9
$DIMTAD
 70
     1
  9
$DIMZIN
 70
     8
  9
$DIMBLK
  1

  9
$DIMASO
 70
     1
  9
$DIMSHO
 70
     1
  9
$DIMPOST
  1

  9
$DIMAPOST
  1

  9
$DIMALT
 70
     0
  9
$DIMALTD
 70
     3
  9
$DIMALTF
 40
0.03937007874016
  9
$DIMLFAC
 40
1.0
  9
$DIMTOFL
 70
     1
  9
$DIMTVP
 40
0.0
  9
$DIMTIX
 70
     0
  9
$DIMSOXD
 70
     0
  9
$DIMSAH
 70
     0
  9
$DIMBLK1
  1

  9
$DIMBLK2
  1

  9
$DIMSTYLE
  2
ISO-25
  9
$DIMCLRD
 70
     0
  9
$DIMCLRE
 70
     0
  9
$DIMCLRT
 70
     0
  9
$DIMTFAC
 40
1.0
  9
$DIMGAP
 40
0.625
  9
$DIMJUST
 70
     0
  9
$DIMSD1
 70
     0
  9
$DIMSD2
 70
     0
  9
$DIMTOLJ
 70
     0
  9
$DIMTZIN
 70
     8
  9
$DIMALTZ
 70
     0
  9
$DIMALTTZ
 70
     0
  9
$DIMFIT
 70
     3
  9
$DIMUPT
 70
     0
  9
$DIMUNIT
 70
     2
  9
$DIMDEC
 70
     2
  9
$DIMTDEC
 70
     2
  9
$DIMALTU
 70
     2
  9
$DIMALTTD
 70
     3
  9
$DIMTXSTY
  7
STANDARD
  9
$DIMAUNIT
 70
     0
  9
$LUNITS
 70
     2
  9
$LUPREC
 70
     4
  9
$SKETCHINC
 40
1.0
  9
$FILLETRAD
 40
10.0
  9
$AUNITS
 70
     0
  9
$AUPREC
 70
     0
  9
$MENU
  1
.
  9
$ELEVATION
 40
0.0
  9
$PELEVATION
 40
0.0
  9
$THICKNESS
 40
0.0
  9
$LIMCHECK
 70
     0
  9
$CHAMFERA
 40
0.0
  9
$CHAMFERB
 40
0.0
  9
$CHAMFERC
 40
0.0
  9
$CHAMFERD
 40
0.0
  9
$SKPOLY
 70
     0
  9
$TDCREATE
 40
2458060.489090046
  9
$TDUPDATE
 40
2458060.489091852
  9
$TDINDWG
 40
0.0000000116
  9
$TDUSRTIMER
 40
0.0000000116
  9
$USRTIMER
 70
     1
  9
$ANGBASE
 50
0.0
  9
$ANGDIR
 70
     0
  9
$PDMODE
 70
     0
  9
$PDSIZE
 40
0.0
  9
$PLINEWID
 40
0.0
  9
$COORDS
 70
     1
  9
$SPLFRAME
 70
     0
  9
$SPLINETYPE
 70
     6
  9
$SPLINESEGS
 70
     8
  9
$ATTDIA
 70
     0
  9
$ATTREQ
 70
     1
  9
$HANDLING
 70
     1
  9
$HANDSEED
  5
1E0
  9
$SURFTAB1
 70
     6
  9
$SURFTAB2
 70
     6
  9
$SURFTYPE
 70
     6
  9
$SURFU
 70
     6
  9
$SURFV
 70
     6
  9
$UCSNAME
  2

  9
$UCSORG
 10
0.0
 20
0.0
 30
0.0
  9
$UCSXDIR
 10
1.0
 20
0.0
 30
0.0
  9
$UCSYDIR
 10
0.0
 20
1.0
 30
0.0
  9
$PUCSNAME
  2

  9
$PUCSORG
 10
0.0
 20
0.0
 30
0.0
  9
$PUCSXDIR
 10
1.0
 20
0.0
 30
0.0
  9
$PUCSYDIR
 10
0.0
 20
1.0
 30
0.0
  9
$USERI1
 70
     0
  9
$USERI2
 70
     0
  9
$USERI3
 70
     0
  9
$USERI4
 70
     0
  9
$USERI5
 70
     0
  9
$USERR1
 40
0.0
  9
$USERR2
 40
0.0
  9
$USERR3
 40
0.0
  9
$USERR4
 40
0.0
  9
$USERR5
 40
0.0
  9
$WORLDVIEW
 70
     1
  9
$SHADEDGE
 70
     3
  9
$SHADEDIF
 70
    70
  9
$TILEMODE
 70
     1
  9
$MAXACTVP
 70
    64
  9
$PINSBASE
 10
0.0
 20
0.0
 30
0.0
  9
$PLIMCHECK
 70
     0
  9
$PEXTMIN
 10
1.000000000000000E+20
 20
1.000000000000000E+20
 30
1.000000000000000E+20
  9
$PEXTMAX
 10
-1.000000000000000E+20
 20
-1.000000000000000E+20
 30
-1.000000000000000E+20
  9
$PLIMMIN
 10
0.0
 20
0.0
  9
$PLIMMAX
 10
420.0
 20
297.0
  9
$UNITMODE
 70
     0
  9
$VISRETAIN
 70
     1
  9
$PLINEGEN
 70
     0
  9
$PSLTSCALE
 70
     1
  9
$TREEDEPTH
 70
  3020
  9
$PICKSTYLE
 70
     1
  9
$CMLSTYLE
  2
STANDARD
  9
$CMLJUST
 70
     0
  9
$CMLSCALE
 40
20.0
  9
$SAVEIMAGES
 70
     1
  0
ENDSEC
  0
SECTION
  2
CLASSES
  0
CLASS
  1
ACDBDICTIONARYWDFLT
  2
AcDbDictionaryWithDefault
  3
ObjectDBX Classes
 90
    32768
280
     0
281
     0
  0
CLASS
  1
VISUALSTYLE
  2
AcDbVisualStyle
  3
ObjectDBX Classes
 90
     4095
280
     0
281
     0
  0
CLASS
  1
MATERIAL
  2
AcDbMaterial
  3
ObjectDBX Classes
 90
     1153
280
     0
281
     0
  0
CLASS
  1
SCALE
  2
AcDbScale
  3
ObjectDBX Classes
 90
     1153
280
     0
281
     0
  0
CLASS
  1
TABLESTYLE
  2
AcDbTableStyle
  3
ObjectDBX Classes
 90
     4095
280
     0
281
     0
  0
CLASS
  1
MLEADERSTYLE
  2
AcDbMLeaderStyle
  3
ACDB_MLEADERSTYLE_CLASS
 90
     4095
280
     0
281
     0
  0
CLASS
  1
SUN
  2
AcDbSun
  3
SCENEOE
 90
     1153
280
     0
281
     0
  0
CLASS
  1
DICTIONARYVAR
  2
AcDbDictionaryVar
  3
ObjectDBX Classes
 90
        0
280
     0
281
     0
  0
CLASS
  1
XRECORD
  2
AcDbXrecord
  3
ObjectDBX Classes
 90
    32768
280
     0
281
     0
  0
CLASS
  1
LWPOLYLINE
  2
AcDbPolyline
  3
ObjectDBX Classes
 90
    32768
280
     0
281
     1
  0
CLASS
  1
HATCH
  2
AcDbHatch
  3
ObjectDBX Classes
 90
    32768
280
     0
281
     1
  0
CLASS
  1
ACDBPLACEHOLDER
  2
AcDbPlaceHolder
  3
ObjectDBX Classes
 90
        0
280
     0
281
     0
  0
CLASS
  1
LAYOUT
  2
AcDbLayout
  3
ObjectDBX Classes
 90
        0
280
     0
281
     0
  0
ENDSEC
  0
SECTION
  2
TABLES
  0
TABLE
  2
VPORT
  5
8
330
0
100
AcDbSymbolTable
 70
     1
  0
VPORT
  5
29
330
8
100
AcDbSymbolTableRecord
100
AcDbViewportTableRecord
  2
*ACTIVE
 70
     0
 10
0.0
 20
0.0
 11
1.0
 21
1.0
 12
385.0
 22
0.0
 13
0.0
 23
0.0
 14
10.0
 24
10.0
 15
10.0
 25
10.0
 16
0.0
 26
0.0
 36
1.0
 17
0.0
 27
0.0
 37
0.0
 40
544.6800233995257
 41
1.441947503596813
 42
50.0
 43
0.0
 44
0.0
 50
0.0
 51
0.0
 71
     0
 72
   100
 73
     1
 74
     3
 75
     0
 76
     0
 77
     0
 78
     0
  0
ENDTAB
  0
TABLE
  2
LTYPE
  5
5
330
0
100
AcDbSymbolTable
 70
     1
  0
LTYPE
  5
14
330
5
100
AcDbSymbolTableRecord
100
AcDbLinetypeTableRecord
  2
BYBLOCK
 70
     0
  3

 72
    65
 73
     0
 40
0.0
  0
LTYPE
  5
15
330
5
100
AcDbSymbolTableRecord
100
AcDbLinetypeTableRecord
  2
BYLAYER
 70
     0
  3

 72
    65
 73
     0
 40
0.0
  0
LTYPE
  5
16
330
5
100
AcDbSymbolTableRecord
100
AcDbLinetypeTableRecord
  2
CONTINUOUS
 70
     0
  3
Solid line
 72
    65
 73
     0
 40
0.0
  0
ENDTAB
  0
TABLE
  2
LAYER
  5
2
330
0
100
AcDbSymbolTable
 70
     4
  0
LAYER
  5
10
330
2
100
AcDbSymbolTableRecord
100
AcDbLayerTableRecord
  2
0
 70
     0
 62
     7
  6
CONTINUOUS
  0
LAYER
  5
6E
330
2
100
AcDbSymbolTableRecord
100
AcDbLayerTableRecord
  2
THICK
 70
     0
 62
     7
  6
CONTINUOUS
  0
LAYER
  5
6F
330
2
100
AcDbSymbolTableRecord
100
AcDbLayerTableRecord
  2
HIDDEN
 70
     0
 62
     7
  6
CONTINUOUS
  0
LAYER
  5
70
330
2
100
AcDbSymbolTableRecord
100
AcDbLayerTableRecord
  2
HASHLINES
 70
     0
 62
     7
  6
CONTINUOUS
  0
ENDTAB
  0
TABLE
  2
STYLE
  5
3
330
0
100
AcDbSymbolTable
 70
     1
  0
STYLE
  5
11
330
3
100
AcDbSymbolTableRecord
100
AcDbTextStyleTableRecord
  2
STANDARD
 70
     0
 40
0.0
 41
1.0
 50
0.0
 71
     0
 42
2.5
  3
txt
  4

  0
ENDTAB
  0
TABLE
  2
VIEW
  5
6
330
0
100
AcDbSymbolTable
 70
     0
  0
ENDTAB
  0
TABLE
  2
UCS
  5
7
330
0
100
AcDbSymbolTable
 70
     0
  0
ENDTAB
  0
TABLE
  2
APPID
  5
9
330
0
100
AcDbSymbolTable
 70
     3
  0
APPID
  5
12
330
9
100
AcDbSymbolTableRecord
100
AcDbRegAppTableRecord
  2
ACAD
 70
     0
  0
APPID
  5
71
330
9
100
AcDbSymbolTableRecord
100
AcDbRegAppTableRecord
  2
DBPROPERTIES
 70
     0
  0
APPID
  5
1DF
330
9
100
AcDbSymbolTableRecord
100
AcDbRegAppTableRecord
  2
ACAD_MLEADERVER
 70
     0
  0
ENDTAB
  0
TABLE
  2
DIMSTYLE
  5
A
330
0
100
AcDbSymbolTable
 70
     1
  0
DIMSTYLE
105
27
330
A
100
AcDbSymbolTableRecord
100
AcDbDimStyleTableRecord
  2
ISO-25
 70
     0
  3

  4

  5

  6

  7

 40
1.0
 41
2.5
 42
0.625
 43
3.75
 44
1.25
 45
0.0
 46
0.0
 47
0.0
 48
0.0
140
2.5
141
2.5
142
0.0
143
0.03937007874016
144
1.0
145
0.0
146
1.0
147
0.625
 71
     0
 72
     0
 73
     0
 74
     0
 75
     0
 76
     0
 77
     1
 78
     8
170
     0
171
     3
172
     1
173
     0
174
     0
175
     0
176
     0
177
     0
178
     0
270
     2
271
     2
272
     2
273
     2
274
     3
340
11
275
     0
280
     0
281
     0
282
     0
283
     0
284
     8
285
     0
286
     0
287
     3
288
     0
  0
ENDTAB
  0
TABLE
  2
BLOCK_RECORD
  5
1
330
0
100
AcDbSymbolTable
 70
     0
  0
BLOCK_RECORD
  5
1F
330
1
100
AcDbSymbolTableRecord
100
AcDbBlockTableRecord
  2
*MODEL_SPACE
  0
BLOCK_RECORD
  5
1B
330
1
100
AcDbSymbolTableRecord
100
AcDbBlockTableRecord
  2
*PAPER_SPACE
  0
ENDTAB
  0
ENDSEC
  0
SECTION
  2
BLOCKS
  0
BLOCK
  5
20
330
1F
100
AcDbEntity
  8
0
100
AcDbBlockBegin
  2
*MODEL_SPACE
 70
     0
 10
0.0
 20
0.0
 30
0.0
  3
*MODEL_SPACE
  1

  0
ENDBLK
  5
21
330
1F
100
AcDbEntity
  8
0
100
AcDbBlockEnd
  0
BLOCK
  5
1C
330
1B
100
AcDbEntity
 67
     1
  8
0
100
AcDbBlockBegin
  2
*PAPER_SPACE
 70
     0
 10
0.0
 20
0.0
 30
0.0
  3
*PAPER_SPACE
  1

  0
ENDBLK
  5
1D
330
1B
100
AcDbEntity
 67
     1
  8
0
100
AcDbBlockEnd
  0
ENDSEC
  0
SECTION
  2
ENTITIES
  0
LINE
  5
72
330
1F
100
AcDbEntity
  8
THICK
100
AcDbLine
 10
770.0
 20
242.0
 30
0.0
 11
770.0
 21
-242.0
 31
0.0
1001
DBPROPERTIES
1002
{
1000
PbThick
1002
}
  0
LINE
  5
73
330
1F
100
AcDbEntity
  8
THICK
100
AcDbLine
 10
770.0
 20
242.0
 30
0.0
 11
762.2999877929688
 21
242.0
 31
0.0
1001
DBPROPERTIES
1002
{
1000
PbThick
1002
}
  0
LINE
  5
74
330
1F
100
AcDbEntity
  8
THICK
100
AcDbLine
 10
762.2999877929688
 20
-242.0
 30
0.0
 11
770.0
 21
-242.0
 31
0.0
1001
DBPROPERTIES
1002
{
1000
PbThick
1002
}
  0
LINE
  5
75
330
1F
100
AcDbEntity
  8
HIDDEN
100
AcDbLine
 10
646.8
 20
-207.7000000000003
 30
0.0
 11
646.8
 21
207.7000000000003
 31
0.0
1001
DBPROPERTIES
1002
{
1000
PbHidd
1002
}
  0
LINE
  5
76
330
1F
100
AcDbEntity
  8
THICK
100
AcDbLine
 10
762.2999877929688
 20
207.7000000000003
 30
0.0
 11
646.7999877929688
 21
207.7000000000003
 31
0.0
1001
DBPROPERTIES
1002
{
1000
PbThick
1002
}
  0
LINE
  5
77
330
1F
100
AcDbEntity
  8
THICK
100
AcDbLine
 10
646.7999877929688
 20
-207.7000000000003
 30
0.0
 11
762.2999877929688
 21
-207.7000000000003
 31
0.0
1001
DBPROPERTIES
1002
{
1000
PbThick
1002
}
  0
LINE
  5
78
330
1F
100
AcDbEntity
  8
HIDDEN
100
AcDbLine
 10
562.0999999999999
 20
42.17371327433616
 30
0.0
 11
562.0999999999999
 21
267.0
 31
0.0
1001
DBPROPERTIES
1002
{
1000
PbHidd
1002
}
  0
LINE
  5
79
330
1F
100
AcDbEntity
  8
THICK
100
AcDbLine
 10
646.7999932420649
 20
207.7000047313526
 30
0.0
 11
562.0999836165407
 21
267.0000114703557
 31
0.0
1001
DBPROPERTIES
1002
{
1000
PbThick
1002
}
  0
LINE
  5
7A
330
1F
100
AcDbEntity
  8
THICK
100
AcDbLine
 10
562.0999836165407
 20
-267.0000114703557
 30
0.0
 11
646.7999932420649
 21
-207.7000047313526
 31
0.0
1001
DBPROPERTIES
1002
{
1000
PbThick
1002
}
  0
LINE
  5
7B
330
1F
100
AcDbEntity
  8
HIDDEN
100
AcDbLine
 10
562.0999999999999
 20
-267.0
 30
0.0
 11
562.0999999999999
 21
-42.17371327433642
 31
0.0
1001
DBPROPERTIES
1002
{
1000
PbHidd
1002
}
  0
LINE
  5
7C
330
1F
100
AcDbEntity
  8
THICK
100
AcDbLine
 10
107.8000030517578
 20
207.7
 30
0.0
 11
7.699999809265137
 21
207.7
 31
0.0
1001
DBPROPERTIES
1002
{
1000
PbThick
1002
}
  0
LINE
  5
7D
330
1F
100
AcDbEntity
  8
HIDDEN
100
AcDbLine
 10
107.8000000000001
 20
-207.7
 30
0.0
 11
107.8000000000001
 21
207.7
 31
0.0
1001
DBPROPERTIES
1002
{
1000
PbHidd
1002
}
  0
LINE
  5
7E
330
1F
100
AcDbEntity
  8
THICK
100
AcDbLine
 10
7.699999809265137
 20
-207.7
 30
0.0
 11
107.8000030517578
 21
-207.7
 31
0.0
1001
DBPROPERTIES
1002
{
1000
PbThick
1002
}
  0
LINE
  5
7F
330
1F
100
AcDbEntity
  8
THICK
100
AcDbLine
 10
7.699999809265137
 20
242.0
 30
0.0
 11
0.0000000000000142
 21
242.0
 31
0.0
1001
DBPROPERTIES
1002
{
1000
PbThick
1002
}
  0
LINE
  5
80
330
1F
100
AcDbEntity
  8
THICK
100
AcDbLine
 10
0.0
 20
-242.0
 30
0.0
 11
7.699999809265137
 21
-242.0
 31
0.0
1001
DBPROPERTIES
1002
{
1000
PbThick
1002
}
  0
LINE
  5
81
330
1F
100
AcDbEntity
  8
HIDDEN
100
AcDbLine
 10
107.8000030517578
 20
200.0
 30
0.0
 11
0.0000000000000142
 21
200.0
 31
0.0
1001
DBPROPERTIES
1002
{
1000
PbHidd
1002
}
  0
LINE
  5
82
330
1F
100
AcDbEntity
  8
HIDDEN
100
AcDbLine
 10
107.8000000000001
 20
200.0
 30
0.0
 11
107.8000000000001
 21
-200.0
 31
0.0
1001
DBPROPERTIES
1002
{
1000
PbHidd
1002
}
  0
LINE
  5
83
330
1F
100
AcDbEntity
  8
HIDDEN
100
AcDbLine
 10
0.0
 20
-200.0
 30
0.0
 11
107.8000030517578
 21
-200.0
 31
0.0
1001
DBPROPERTIES
1002
{
1000
PbHidd
1002
}
  0
LINE
  5
84
330
1F
100
AcDbEntity
  8
HIDDEN
100
AcDbLine
 10
207.899990129105
 20
259.2999941524068
 30
0.0
 11
107.8000022589771
 21
200.0000013382352
 31
0.0
1001
DBPROPERTIES
1002
{
1000
PbHidd
1002
}
  0
LINE
  5
85
330
1F
100
AcDbEntity
  8
HIDDEN
100
AcDbLine
 10
207.9
 20
259.3
 30
0.0
 11
207.9
 21
41.8350120675784
 31
0.0
1001
DBPROPERTIES
1002
{
1000
PbHidd
1002
}
  0
LINE
  5
86
330
1F
100
AcDbEntity
  8
HIDDEN
100
AcDbLine
 10
207.9000000000015
 20
41.83501206757865
 30
0.0
 11
202.2790000000005
 21
38.44799999999941
 31
0.0
1001
DBPROPERTIES
1002
{
1000
PbHidd
1002
}
  0
LINE
  5
87
330
1F
100
AcDbEntity
  8
HIDDEN
100
AcDbLine
 10
202.2790069580078
 20
-38.44800186157227
 30
0.0
 11
203.0781707763672
 21
-38.92954635620117
 31
0.0
1001
DBPROPERTIES
1002
{
1000
PbHidd
1002
}
  0
LINE
  5
88
330
1F
100
AcDbEntity
  8
HIDDEN
100
AcDbLine
 10
203.0781707763672
 20
-38.92954635620117
 30
0.0
 11
203.8786010742188
 21
-39.411865234375
 31
0.0
1001
DBPROPERTIES
1002
{
1000
PbHidd
1002
}
  0
LINE
  5
89
330
1F
100
AcDbEntity
  8
HIDDEN
100
AcDbLine
 10
203.8786010742188
 20
-39.411865234375
 30
0.0
 11
204.6803283691406
 21
-39.89495468139648
 31
0.0
1001
DBPROPERTIES
1002
{
1000
PbHidd
1002
}
  0
LINE
  5
8A
330
1F
100
AcDbEntity
  8
HIDDEN
100
AcDbLine
 10
204.6803283691406
 20
-39.89495468139648
 30
0.0
 11
205.4833221435547
 21
-40.37881088256836
 31
0.0
1001
DBPROPERTIES
1002
{
1000
PbHidd
1002
}
  0
LINE
  5
8B
330
1F
100
AcDbEntity
  8
HIDDEN
100
AcDbLine
 10
205.4833221435547
 20
-40.37881088256836
 30
0.0
 11
206.2876129150391
 21
-40.86344146728516
 31
0.0
1001
DBPROPERTIES
1002
{
1000
PbHidd
1002
}
  0
LINE
  5
8C
330
1F
100
AcDbEntity
  8
HIDDEN
100
AcDbLine
 10
206.2876129150391
 20
-40.86344146728516
 30
0.0
 11
207.0931701660156
 21
-41.34884262084961
 31
0.0
1001
DBPROPERTIES
1002
{
1000
PbHidd
1002
}
  0
LINE
  5
8D
330
1F
100
AcDbEntity
  8
HIDDEN
100
AcDbLine
 10
207.0931701660156
 20
-41.34884262084961
 30
0.0
 11
207.8999938964844
 21
-41.83501052856445
 31
0.0
1001
DBPROPERTIES
1002
{
1000
PbHidd
1002
}
  0
LINE
  5
8E
330
1F
100
AcDbEntity
  8
HIDDEN
100
AcDbLine
 10
207.9
 20
-41.83501206757825
 30
0.0
 11
207.9
 21
-259.3
 31
0.0
1001
DBPROPERTIES
1002
{
1000
PbHidd
1002
}
  0
LINE
  5
8F
330
1F
100
AcDbEntity
  8
HIDDEN
100
AcDbLine
 10
107.8000022589771
 20
-200.0000013382352
 30
0.0
 11
207.899990129105
 21
-259.2999941524068
 31
0.0
1001
DBPROPERTIES
1002
{
1000
PbHidd
1002
}
  0
LINE
  5
90
330
1F
100
AcDbEntity
  8
HIDDEN
100
AcDbLine
 10
646.8
 20
200.0
 30
0.0
 11
646.8
 21
-200.0
 31
0.0
1001
DBPROPERTIES
1002
{
1000
PbHidd
1002
}
  0
LINE
  5
91
330
1F
100
AcDbEntity
  8
HIDDEN
100
AcDbLine
 10
770.0
 20
200.0
 30
0.0
 11
646.7999877929688
 21
200.0
 31
0.0
1001
DBPROPERTIES
1002
{
1000
PbHidd
1002
}
  0
LINE
  5
92
330
1F
100
AcDbEntity
  8
HIDDEN
100
AcDbLine
 10
646.7999877929688
 20
-200.0
 30
0.0
 11
770.0
 21
-200.0
 31
0.0
1001
DBPROPERTIES
1002
{
1000
PbHidd
1002
}
  0
LINE
  5
93
330
1F
100
AcDbEntity
  8
THICK
100
AcDbLine
 10
207.8999954820458
 20
266.9999973235296
 30
0.0
 11
107.8000009207419
 21
207.7000005454545
 31
0.0
1001
DBPROPERTIES
1002
{
1000
PbThick
1002
}
  0
LINE
  5
94
330
1F
100
AcDbEntity
  8
HIDDEN
100
AcDbLine
 10
207.9
 20
41.83501206757845
 30
0.0
 11
207.9
 21
267.0
 31
0.0
1001
DBPROPERTIES
1002
{
1000
PbHidd
1002
}
  0
LINE
  5
95
330
1F
100
AcDbEntity
  8
HIDDEN
100
AcDbLine
 10
207.9
 20
-267.0
 30
0.0
 11
207.9
 21
-41.83501206757848
 31
0.0
1001
DBPROPERTIES
1002
{
1000
PbHidd
1002
}
  0
LINE
  5
96
330
1F
100
AcDbEntity
  8
THICK
100
AcDbLine
 10
107.8000009207419
 20
-207.7000005454545
 30
0.0
 11
207.8999954820458
 21
-266.9999973235296
 31
0.0
1001
DBPROPERTIES
1002
{
1000
PbThick
1002
}
  0
LINE
  5
97
330
1F
100
AcDbEntity
  8
THICK
100
AcDbLine
 10
562.0999755859375
 20
267.0
 30
0.0
 11
207.8999938964844
 21
267.0
 31
0.0
1001
DBPROPERTIES
1002
{
1000
PbThick
1002
}
  0
LINE
  5
98
330
1F
100
AcDbEntity
  8
THICK
100
AcDbLine
 10
207.8999938964844
 20
-267.0
 30
0.0
 11
562.0999755859375
 21
-267.0
 31
0.0
1001
DBPROPERTIES
1002
{
1000
PbThick
1002
}
  0
LINE
  5
99
330
1F
100
AcDbEntity
  8
HIDDEN
100
AcDbLine
 10
562.0999999999999
 20
259.3
 30
0.0
 11
562.0999999999999
 21
42.17371327433618
 31
0.0
1001
DBPROPERTIES
1002
{
1000
PbHidd
1002
}
  0
LINE
  5
9A
330
1F
100
AcDbEntity
  8
HIDDEN
100
AcDbLine
 10
646.7999918082704
 20
200.0000057351779
 30
0.0
 11
562.0999893517186
 21
259.3000074550541
 31
0.0
1001
DBPROPERTIES
1002
{
1000
PbHidd
1002
}
  0
LINE
  5
9B
330
1F
100
AcDbEntity
  8
HIDDEN
100
AcDbLine
 10
562.0999893517186
 20
-259.3000074550541
 30
0.0
 11
646.7999918082704
 21
-200.0000057351779
 31
0.0
1001
DBPROPERTIES
1002
{
1000
PbHidd
1002
}
  0
LINE
  5
9C
330
1F
100
AcDbEntity
  8
HIDDEN
100
AcDbLine
 10
562.0999999999999
 20
-42.17371327433638
 30
0.0
 11
562.0999999999999
 21
-259.3
 31
0.0
1001
DBPROPERTIES
1002
{
1000
PbHidd
1002
}
  0
LINE
  5
9D
330
1F
100
AcDbEntity
  8
HIDDEN
100
AcDbLine
 10
562.0999755859375
 20
-42.17371368408203
 30
0.0
 11
562.9075927734375
 21
-41.63842010498047
 31
0.0
1001
DBPROPERTIES
1002
{
1000
PbHidd
1002
}
  0
LINE
  5
9E
330
1F
100
AcDbEntity
  8
HIDDEN
100
AcDbLine
 10
562.9075927734375
 20
-41.63842010498047
 30
0.0
 11
563.7136840820312
 21
-41.10414505004883
 31
0.0
1001
DBPROPERTIES
1002
{
1000
PbHidd
1002
}
  0
LINE
  5
9F
330
1F
100
AcDbEntity
  8
HIDDEN
100
AcDbLine
 10
563.7136840820312
 20
-41.10414505004883
 30
0.0
 11
564.5181884765625
 21
-40.57088851928711
 31
0.0
1001
DBPROPERTIES
1002
{
1000
PbHidd
1002
}
  0
LINE
  5
A0
330
1F
100
AcDbEntity
  8
HIDDEN
100
AcDbLine
 10
564.5181884765625
 20
-40.57088851928711
 30
0.0
 11
565.3211669921875
 21
-40.03864288330078
 31
0.0
1001
DBPROPERTIES
1002
{
1000
PbHidd
1002
}
  0
LINE
  5
A1
330
1F
100
AcDbEntity
  8
HIDDEN
100
AcDbLine
 10
565.3211669921875
 20
-40.03864288330078
 30
0.0
 11
566.1226806640625
 21
-39.50741577148438
 31
0.0
1001
DBPROPERTIES
1002
{
1000
PbHidd
1002
}
  0
LINE
  5
A2
330
1F
100
AcDbEntity
  8
HIDDEN
100
AcDbLine
 10
566.1226806640625
 20
-39.50741577148438
 30
0.0
 11
566.922607421875
 21
-38.97719955444336
 31
0.0
1001
DBPROPERTIES
1002
{
1000
PbHidd
1002
}
  0
LINE
  5
A3
330
1F
100
AcDbEntity
  8
HIDDEN
100
AcDbLine
 10
566.922607421875
 20
-38.97719955444336
 30
0.0
 11
567.7210083007812
 21
-38.44800186157227
 31
0.0
1001
DBPROPERTIES
1002
{
1000
PbHidd
1002
}
  0
LINE
  5
A4
330
1F
100
AcDbEntity
  8
HIDDEN
100
AcDbLine
 10
567.7210083007812
 20
38.44800186157227
 30
0.0
 11
566.922607421875
 21
38.97719955444336
 31
0.0
1001
DBPROPERTIES
1002
{
1000
PbHidd
1002
}
  0
LINE
  5
A5
330
1F
100
AcDbEntity
  8
HIDDEN
100
AcDbLine
 10
566.922607421875
 20
38.97719955444336
 30
0.0
 11
566.1226806640625
 21
39.50741577148438
 31
0.0
1001
DBPROPERTIES
1002
{
1000
PbHidd
1002
}
  0
LINE
  5
A6
330
1F
100
AcDbEntity
  8
HIDDEN
100
AcDbLine
 10
566.1226806640625
 20
39.50741577148438
 30
0.0
 11
565.3211669921875
 21
40.03864288330078
 31
0.0
1001
DBPROPERTIES
1002
{
1000
PbHidd
1002
}
  0
LINE
  5
A7
330
1F
100
AcDbEntity
  8
HIDDEN
100
AcDbLine
 10
565.3211669921875
 20
40.03864288330078
 30
0.0
 11
564.5181884765625
 21
40.57088851928711
 31
0.0
1001
DBPROPERTIES
1002
{
1000
PbHidd
1002
}
  0
LINE
  5
A8
330
1F
100
AcDbEntity
  8
HIDDEN
100
AcDbLine
 10
564.5181884765625
 20
40.57088851928711
 30
0.0
 11
563.7136840820312
 21
41.10414505004883
 31
0.0
1001
DBPROPERTIES
1002
{
1000
PbHidd
1002
}
  0
LINE
  5
A9
330
1F
100
AcDbEntity
  8
HIDDEN
100
AcDbLine
 10
563.7136840820312
 20
41.10414505004883
 30
0.0
 11
562.9075927734375
 21
41.63842010498047
 31
0.0
1001
DBPROPERTIES
1002
{
1000
PbHidd
1002
}
  0
LINE
  5
AA
330
1F
100
AcDbEntity
  8
HIDDEN
100
AcDbLine
 10
562.9075927734375
 20
41.63842010498047
 30
0.0
 11
562.0999755859375
 21
42.17371368408203
 31
0.0
1001
DBPROPERTIES
1002
{
1000
PbHidd
1002
}
  0
LINE
  5
AB
330
1F
100
AcDbEntity
  8
HIDDEN
100
AcDbLine
 10
562.0999755859375
 20
259.3
 30
0.0
 11
207.8999938964844
 21
259.3
 31
0.0
1001
DBPROPERTIES
1002
{
1000
PbHidd
1002
}
  0
LINE
  5
AC
330
1F
100
AcDbEntity
  8
HIDDEN
100
AcDbLine
 10
562.0999999999999
 20
42.17371327433618
 30
0.0
 11
480.711
 21
96.11999999999992
 31
0.0
1001
DBPROPERTIES
1002
{
1000
PbHidd
1002
}
  0
LINE
  5
AD
330
1F
100
AcDbEntity
  8
HIDDEN
100
AcDbLine
 10
297.99
 20
96.12000000000003
 30
0.0
 11
207.8999999999998
 21
41.83501206757834
 31
0.0
1001
DBPROPERTIES
1002
{
1000
PbHidd
1002
}
  0
LINE
  5
AE
330
1F
100
AcDbEntity
  8
HIDDEN
100
AcDbLine
 10
207.8999938964844
 20
-259.3
 30
0.0
 11
562.0999755859375
 21
-259.3
 31
0.0
1001
DBPROPERTIES
1002
{
1000
PbHidd
1002
}
  0
LINE
  5
AF
330
1F
100
AcDbEntity
  8
HIDDEN
100
AcDbLine
 10
207.8999999999999
 20
-41.83501206757838
 30
0.0
 11
297.9899999999998
 21
-96.11999999999995
 31
0.0
1001
DBPROPERTIES
1002
{
1000
PbHidd
1002
}
  0
LINE
  5
B0
330
1F
100
AcDbEntity
  8
HIDDEN
100
AcDbLine
 10
480.711
 20
-96.12
 30
0.0
 11
562.1
 21
-42.17371327433638
 31
0.0
1001
DBPROPERTIES
1002
{
1000
PbHidd
1002
}
  0
LINE
  5
B1
330
1F
100
AcDbEntity
  8
THICK
100
AcDbLine
 10
223.3
 20
-32.04000000000009
 30
0.0
 11
223.3
 21
-0.0000000000000329
 31
0.0
1001
DBPROPERTIES
1002
{
1000
PbThick
1002
}
  0
LINE
  5
B2
330
1F
100
AcDbEntity
  8
THICK
100
AcDbLine
 10
202.279
 20
0.0000000000000329
 30
0.0
 11
202.279
 21
-38.44800000000006
 31
0.0
1001
DBPROPERTIES
1002
{
1000
PbThick
1002
}
  0
LINE
  5
B3
330
1F
100
AcDbEntity
  8
THICK
100
AcDbLine
 10
202.2789999999999
 20
-38.44799999999995
 30
0.0
 11
297.9899999999998
 21
-96.11999999999995
 31
0.0
1001
DBPROPERTIES
1002
{
1000
PbThick
1002
}
  0
LINE
  5
B4
330
1F
100
AcDbEntity
  8
THICK
100
AcDbLine
 10
297.9899999999999
 20
-96.12000000000003
 30
0.0
 11
480.7109999999999
 21
-96.12000000000003
 31
0.0
1001
DBPROPERTIES
1002
{
1000
PbThick
1002
}
  0
LINE
  5
B5
330
1F
100
AcDbEntity
  8
THICK
100
AcDbLine
 10
480.711
 20
-96.11999999999998
 30
0.0
 11
567.721
 21
-38.44800000000007
 31
0.0
1001
DBPROPERTIES
1002
{
1000
PbThick
1002
}
  0
LINE
  5
B6
330
1F
100
AcDbEntity
  8
THICK
100
AcDbLine
 10
567.721
 20
-38.44800000000011
 30
0.0
 11
567.721
 21
-0.0000000000000329
 31
0.0
1001
DBPROPERTIES
1002
{
1000
PbThick
1002
}
  0
LINE
  5
B7
330
1F
100
AcDbEntity
  8
THICK
100
AcDbLine
 10
546.6999999999999
 20
0.0000000000000329
 30
0.0
 11
546.6999999999999
 21
-32.04000000000003
 31
0.0
1001
DBPROPERTIES
1002
{
1000
PbThick
1002
}
  0
LINE
  5
B8
330
1F
100
AcDbEntity
  8
THICK
100
AcDbLine
 10
546.7
 20
-32.04000000000004
 30
0.0
 11
469.7000000000001
 21
-80.09999999999997
 31
0.0
1001
DBPROPERTIES
1002
{
1000
PbThick
1002
}
  0
LINE
  5
B9
330
1F
100
AcDbEntity
  8
THICK
100
AcDbLine
 10
469.6999999999999
 20
-80.10000000000005
 30
0.0
 11
307.9999999999999
 21
-80.10000000000005
 31
0.0
1001
DBPROPERTIES
1002
{
1000
PbThick
1002
}
  0
LINE
  5
BA
330
1F
100
AcDbEntity
  8
THICK
100
AcDbLine
 10
307.9999999999998
 20
-80.09999999999997
 30
0.0
 11
223.3
 21
-32.04000000000004
 31
0.0
1001
DBPROPERTIES
1002
{
1000
PbThick
1002
}
  0
LINE
  5
BB
330
1F
100
AcDbEntity
  8
HIDDEN
100
AcDbLine
 10
0.0000000000000138
 20
5.0
 30
0.0
 11
7.699999809265137
 21
5.0
 31
0.0
1001
DBPROPERTIES
1002
{
1000
PbHidd
1002
}
  0
LINE
  5
BC
330
1F
100
AcDbEntity
  8
HIDDEN
100
AcDbLine
 10
7.699999809265137
 20
-5.0
 30
0.0
 11
0.0000000000000133
 21
-5.0
 31
0.0
1001
DBPROPERTIES
1002
{
1000
PbHidd
1002
}
  0
LINE
  5
BD
330
1F
100
AcDbEntity
  8
HIDDEN
100
AcDbLine
 10
0.0000000000000129
 20
-5.000000000000042
 30
0.0
 11
7.699999809265137
 21
-5.000000000000042
 31
0.0
1001
DBPROPERTIES
1002
{
1000
PbHidd
1002
}
  0
LINE
  5
BE
330
1F
100
AcDbEntity
  8
HIDDEN
100
AcDbLine
 10
7.699999809265137
 20
4.999999999999958
 30
0.0
 11
0.0000000000000133
 21
4.999999999999958
 31
0.0
1001
DBPROPERTIES
1002
{
1000
PbHidd
1002
}
  0
LINE
  5
BF
330
1F
100
AcDbEntity
  8
HIDDEN
100
AcDbLine
 10
762.2999877929688
 20
5.0
 30
0.0
 11
770.0
 21
5.0
 31
0.0
1001
DBPROPERTIES
1002
{
1000
PbHidd
1002
}
  0
LINE
  5
C0
330
1F
100
AcDbEntity
  8
HIDDEN
100
AcDbLine
 10
770.0
 20
-5.0
 30
0.0
 11
762.2999877929688
 21
-5.0
 31
0.0
1001
DBPROPERTIES
1002
{
1000
PbHidd
1002
}
  0
LINE
  5
C1
330
1F
100
AcDbEntity
  8
HIDDEN
100
AcDbLine
 10
762.2999877929688
 20
-5.000000000000042
 30
0.0
 11
770.0
 21
-5.000000000000042
 31
0.0
1001
DBPROPERTIES
1002
{
1000
PbHidd
1002
}
  0
LINE
  5
C2
330
1F
100
AcDbEntity
  8
HIDDEN
100
AcDbLine
 10
770.0
 20
4.999999999999958
 30
0.0
 11
762.2999877929688
 21
4.999999999999958
 31
0.0
1001
DBPROPERTIES
1002
{
1000
PbHidd
1002
}
  0
LINE
  5
C3
330
1F
100
AcDbEntity
  8
HIDDEN
100
AcDbLine
 10
371.7100000000001
 20
-0.0000000000000105
 30
0.0
 11
371.7100000000001
 21
57.07
 31
0.0
1001
DBPROPERTIES
1002
{
1000
PbHidd
1002
}
  0
LINE
  5
C4
330
1F
100
AcDbEntity
  8
THICK
100
AcDbLine
 10
506.5978393554688
 20
57.07
 30
0.0
 11
371.7099914550781
 21
57.07
 31
0.0
1001
DBPROPERTIES
1002
{
1000
PbThick
1002
}
  0
LINE
  5
C5
330
1F
100
AcDbEntity
  8
HIDDEN
100
AcDbLine
 10
525.71
 20
0.0000000000000035
 30
0.0
 11
525.71
 21
45.14103116883105
 31
0.0
1001
DBPROPERTIES
1002
{
1000
PbHidd
1002
}
  0
LINE
  5
C6
330
1F
100
AcDbEntity
  8
HIDDEN
100
AcDbLine
 10
525.71
 20
-45.14103116883117
 30
0.0
 11
525.71
 21
0.0000000000000035
 31
0.0
1001
DBPROPERTIES
1002
{
1000
PbHidd
1002
}
  0
LINE
  5
C7
330
1F
100
AcDbEntity
  8
THICK
100
AcDbLine
 10
371.7099914550781
 20
-57.07
 30
0.0
 11
506.5978393554688
 21
-57.07
 31
0.0
1001
DBPROPERTIES
1002
{
1000
PbThick
1002
}
  0
LINE
  5
C8
330
1F
100
AcDbEntity
  8
HIDDEN
100
AcDbLine
 10
371.7100000000001
 20
-57.07
 30
0.0
 11
371.7100000000001
 21
-0.0000000000000105
 31
0.0
1001
DBPROPERTIES
1002
{
1000
PbHidd
1002
}
  0
LINE
  5
C9
330
1F
100
AcDbEntity
  8
THICK
100
AcDbLine
 10
371.7100000000001
 20
0.0000000000000035
 30
0.0
 11
371.7100000000001
 21
-57.07
 31
0.0
1001
DBPROPERTIES
1002
{
1000
PbThick
1002
}
  0
LINE
  5
CA
330
1F
100
AcDbEntity
  8
THICK
100
AcDbLine
 10
350.3500000000001
 20
0.0000000000000022
 30
0.0
 11
350.3500000000001
 21
-35.71
 31
0.0
1001
DBPROPERTIES
1002
{
1000
PbThick
1002
}
  0
LINE
  5
CB
330
1F
100
AcDbEntity
  8
THICK
100
AcDbLine
 10
350.3500036926209
 20
34.71000256085649
 30
0.0
 11
346.5000004287273
 21
32.0400002973251
 31
0.0
1001
DBPROPERTIES
1002
{
1000
PbThick
1002
}
  0
LINE
  5
CC
330
1F
100
AcDbEntity
  8
THICK
100
AcDbLine
 10
346.5000004287273
 20
-32.0400002973251
 30
0.0
 11
350.3500036926209
 21
-34.71000256085649
 31
0.0
1001
DBPROPERTIES
1002
{
1000
PbThick
1002
}
  0
LINE
  5
CD
330
1F
100
AcDbEntity
  8
HIDDEN
100
AcDbLine
 10
608.2999877929688
 20
101.46
 30
0.0
 11
592.9000244140625
 21
101.46
 31
0.0
1001
DBPROPERTIES
1002
{
1000
PbHidd
1002
}
  0
LINE
  5
CE
330
1F
100
AcDbEntity
  8
HIDDEN
100
AcDbLine
 10
592.9000244140625
 20
-101.46
 30
0.0
 11
608.2999877929688
 21
-101.46
 31
0.0
1001
DBPROPERTIES
1002
{
1000
PbHidd
1002
}
  0
LINE
  5
CF
330
1F
100
AcDbEntity
  8
HIDDEN
100
AcDbLine
 10
582.22
 20
-0.0000000000000113
 30
0.0
 11
582.22
 21
61.41
 31
0.0
1001
DBPROPERTIES
1002
{
1000
PbHidd
1002
}
  0
LINE
  5
D0
330
1F
100
AcDbEntity
  8
HIDDEN
100
AcDbLine
 10
582.22
 20
61.41
 30
0.0
 11
582.22
 21
0.0000000000000038
 31
0.0
1001
DBPROPERTIES
1002
{
1000
PbHidd
1002
}
  0
LINE
  5
D1
330
1F
100
AcDbEntity
  8
HIDDEN
100
AcDbLine
 10
570.11
 20
-0.0000000000000113
 30
0.0
 11
570.11
 21
61.41
 31
0.0
1001
DBPROPERTIES
1002
{
1000
PbHidd
1002
}
  0
LINE
  5
D2
330
1F
100
AcDbEntity
  8
HIDDEN
100
AcDbLine
 10
582.219970703125
 20
61.41
 30
0.0
 11
570.1099853515625
 21
61.41
 31
0.0
1001
DBPROPERTIES
1002
{
1000
PbHidd
1002
}
  0
LINE
  5
D3
330
1F
100
AcDbEntity
  8
HIDDEN
100
AcDbLine
 10
582.22
 20
-61.41
 30
0.0
 11
582.22
 21
-0.0000000000000113
 31
0.0
1001
DBPROPERTIES
1002
{
1000
PbHidd
1002
}
  0
LINE
  5
D4
330
1F
100
AcDbEntity
  8
HIDDEN
100
AcDbLine
 10
570.1099853515625
 20
-61.41
 30
0.0
 11
582.219970703125
 21
-61.41
 31
0.0
1001
DBPROPERTIES
1002
{
1000
PbHidd
1002
}
  0
LINE
  5
D5
330
1F
100
AcDbEntity
  8
HIDDEN
100
AcDbLine
 10
570.11
 20
-61.41
 30
0.0
 11
570.11
 21
-0.0000000000000113
 31
0.0
1001
DBPROPERTIES
1002
{
1000
PbHidd
1002
}
  0
LINE
  5
D6
330
1F
100
AcDbEntity
  8
THICK
100
AcDbLine
 10
536.3900000000001
 20
0.0000000000000028
 30
0.0
 11
536.3900000000001
 21
-38.47504675324677
 31
0.0
1001
DBPROPERTIES
1002
{
1000
PbThick
1002
}
  0
LINE
  5
D7
330
1F
100
AcDbEntity
  8
THICK
100
AcDbLine
 10
525.71
 20
0.0000000000000035
 30
0.0
 11
525.71
 21
-45.14103116883115
 31
0.0
1001
DBPROPERTIES
1002
{
1000
PbThick
1002
}
  0
LINE
  5
D8
330
1F
100
AcDbEntity
  8
HIDDEN
100
AcDbLine
 10
561.2758178710938
 20
-42.72
 30
0.0
 11
562.0999755859375
 21
-42.72
 31
0.0
1001
DBPROPERTIES
1002
{
1000
PbHidd
1002
}
  0
LINE
  5
D9
330
1F
100
AcDbEntity
  8
HIDDEN
100
AcDbLine
 10
562.0999755859375
 20
42.72
 30
0.0
 11
561.2758178710938
 21
42.72
 31
0.0
1001
DBPROPERTIES
1002
{
1000
PbHidd
1002
}
  0
LINE
  5
DA
330
1F
100
AcDbEntity
  8
HIDDEN
100
AcDbLine
 10
570.11
 20
0.0000000000000038
 30
0.0
 11
570.11
 21
-61.41
 31
0.0
1001
DBPROPERTIES
1002
{
1000
PbHidd
1002
}
  0
LINE
  5
DB
330
1F
100
AcDbEntity
  8
THICK
100
AcDbLine
 10
562.1
 20
-42.17371327433638
 30
0.0
 11
562.1
 21
-53.40000000000001
 31
0.0
1001
DBPROPERTIES
1002
{
1000
PbThick
1002
}
  0
LINE
  5
DC
330
1F
100
AcDbEntity
  8
HIDDEN
100
AcDbLine
 10
736.995585092537
 20
-58.73999999999999
 30
0.0
 11
736.995585092537
 21
-0.0000000000000108
 31
0.0
1001
DBPROPERTIES
1002
{
1000
PbHidd
1002
}
  0
LINE
  5
DD
330
1F
100
AcDbEntity
  8
HIDDEN
100
AcDbLine
 10
736.995585092537
 20
0.0000000000000036
 30
0.0
 11
736.995585092537
 21
-58.73999999999999
 31
0.0
1001
DBPROPERTIES
1002
{
1000
PbHidd
1002
}
  0
ELLIPSE
  5
DE
330
1F
100
AcDbEntity
  8
HIDDEN
100
AcDbEllipse
 10
688.1284271247462
 20
0.0
 30
0.0
 11
-58.74000000000001
 21
0.0
 31
0.0
210
0.0
220
0.0
230
1.0
 40
0.9999999999999999
 41
-1.988332361240869
 42
-1.570796326794897
1001
DBPROPERTIES
1002
{
1000
PbHidd
1002
}
  0
LINE
  5
DF
330
1F
100
AcDbEntity
  8
HIDDEN
100
AcDbLine
 10
736.99560546875
 20
58.73999999999999
 30
0.0
 11
688.12841796875
 21
58.73999999999999
 31
0.0
1001
DBPROPERTIES
1002
{
1000
PbHidd
1002
}
  0
LINE
  5
E0
330
1F
100
AcDbEntity
  8
HIDDEN
100
AcDbLine
 10
736.995585092537
 20
-0.0000000000000108
 30
0.0
 11
736.995585092537
 21
58.73999999999999
 31
0.0
1001
DBPROPERTIES
1002
{
1000
PbHidd
1002
}
  0
LINE
  5
E1
330
1F
100
AcDbEntity
  8
HIDDEN
100
AcDbLine
 10
708.2186889648438
 20
-58.73999999999999
 30
0.0
 11
736.99560546875
 21
-58.73999999999999
 31
0.0
1001
DBPROPERTIES
1002
{
1000
PbHidd
1002
}
  0
ELLIPSE
  5
E2
330
1F
100
AcDbEntity
  8
HIDDEN
100
AcDbEllipse
 10
688.1284271247462
 20
0.0
 30
0.0
 11
-48.11699108153537
 21
48.11699108153536
 31
0.0
210
0.0
220
0.0
230
1.0
 40
0.7002075382097098
 41
1.709820870177679
 42
2.530727415391778
1001
DBPROPERTIES
1002
{
1000
PbHidd
1002
}
  0
ELLIPSE
  5
E3
330
1F
100
AcDbEntity
  8
HIDDEN
100
AcDbEllipse
 10
630.8527778486358
 20
0.0
 30
0.0
 11
47.13847661929216
 21
46.66553653820669
 31
0.0
210
0.0
220
0.0
230
1.0
 40
0.7568156239209651
 41
-1.722283085361866
 42
-1.667978424992606
1001
DBPROPERTIES
1002
{
1000
PbHidd
1002
}
  0
ELLIPSE
  5
E4
330
1F
100
AcDbEntity
  8
HIDDEN
100
AcDbEllipse
 10
682.4715728752537
 20
0.0
 30
0.0
 11
-48.11699108153537
 21
48.11699108153536
 31
0.0
210
0.0
220
0.0
230
1.0
 40
0.7002075382097098
 41
1.76412553054694
 42
2.530727415391778
1001
DBPROPERTIES
1002
{
1000
PbHidd
1002
}
  0
LINE
  5
E5
330
1F
100
AcDbEntity
  8
HIDDEN
100
AcDbLine
 10
668.0381469726562
 20
-58.73999999999999
 30
0.0
 11
702.5618286132812
 21
-58.73999999999999
 31
0.0
1001
DBPROPERTIES
1002
{
1000
PbHidd
1002
}
  0
ELLIPSE
  5
E6
330
1F
100
AcDbEntity
  8
HIDDEN
100
AcDbEllipse
 10
688.1284271247462
 20
0.0
 30
0.0
 11
48.11699108153537
 21
48.11699108153539
 31
0.0
210
0.0
220
0.0
230
1.0
 40
0.7002075382097094
 41
-2.653502259808145
 42
-2.530727415391778
1001
DBPROPERTIES
1002
{
1000
PbHidd
1002
}
  0
ELLIPSE
  5
E7
330
1F
100
AcDbEntity
  8
HIDDEN
100
AcDbEllipse
 10
630.8527778486358
 20
0.0
 30
0.0
 11
-49.56240444921585
 21
49.23283459091864
 31
0.0
210
0.0
220
0.0
230
1.0
 40
0.6464432560596776
 41
2.633146073992471
 42
2.687450734361731
1001
DBPROPERTIES
1002
{
1000
PbHidd
1002
}
  0
ELLIPSE
  5
E8
330
1F
100
AcDbEntity
  8
HIDDEN
100
AcDbEllipse
 10
682.4715728752537
 20
0.0
 30
0.0
 11
48.11699108153537
 21
48.11699108153539
 31
0.0
210
0.0
220
0.0
230
1.0
 40
0.7002075382097094
 41
-2.599197599438884
 42
-2.530727415391778
1001
DBPROPERTIES
1002
{
1000
PbHidd
1002
}
  0
LINE
  5
E9
330
1F
100
AcDbEntity
  8
HIDDEN
100
AcDbLine
 10
639.0999755859375
 20
-58.73999999999999
 30
0.0
 11
662.3812866210938
 21
-58.73999999999999
 31
0.0
1001
DBPROPERTIES
1002
{
1000
PbHidd
1002
}
  0
LINE
  5
EA
330
1F
100
AcDbEntity
  8
HIDDEN
100
AcDbLine
 10
682.4715576171875
 20
58.73999999999999
 30
0.0
 11
639.0999755859375
 21
58.73999999999999
 31
0.0
1001
DBPROPERTIES
1002
{
1000
PbHidd
1002
}
  0
ELLIPSE
  5
EB
330
1F
100
AcDbEntity
  8
HIDDEN
100
AcDbEllipse
 10
682.4715728752537
 20
0.0
 30
0.0
 11
-58.74000000000001
 21
0.0
 31
0.0
210
0.0
220
0.0
230
1.0
 40
0.9999999999999999
 41
-2.04263702161013
 42
-1.570796326794897
1001
DBPROPERTIES
1002
{
1000
PbHidd
1002
}
  0
ELLIPSE
  5
EC
330
1F
100
AcDbEntity
  8
HIDDEN
100
AcDbEllipse
 10
739.7472221513641
 20
0.0
 30
0.0
 11
-43.89403256334572
 21
42.29754129067622
 31
0.0
210
0.0
220
0.0
230
1.0
 40
0.9285799094018901
 41
-0.3493416557691259
 42
-0.2950369953998661
1001
DBPROPERTIES
1002
{
1000
PbHidd
1002
}
  0
ELLIPSE
  5
ED
330
1F
100
AcDbEntity
  8
HIDDEN
100
AcDbEllipse
 10
688.1284271247462
 20
0.0
 30
0.0
 11
-56.73848303621986
 21
56.73848303621986
 31
0.0
210
0.0
220
0.0
230
1.0
 40
0.267949192431123
 41
1.360755019778813
 42
2.250131749040019
1001
DBPROPERTIES
1002
{
1000
PbHidd
1002
}
  0
ELLIPSE
  5
EE
330
1F
100
AcDbEntity
  8
HIDDEN
100
AcDbEllipse
 10
630.8527778486358
 20
0.0
 30
0.0
 11
56.30754538646489
 21
56.12129355810693
 31
0.0
210
0.0
220
0.0
230
1.0
 40
0.3080091825924698
 41
-1.3771373327854
 42
-1.32283267241614
1001
DBPROPERTIES
1002
{
1000
PbHidd
1002
}
  0
ELLIPSE
  5
EF
330
1F
100
AcDbEntity
  8
HIDDEN
100
AcDbEllipse
 10
682.4715728752537
 20
0.0
 30
0.0
 11
-56.73848303621986
 21
56.73848303621986
 31
0.0
210
0.0
220
0.0
230
1.0
 40
0.267949192431123
 41
1.415059680148074
 42
2.304436409409277
1001
DBPROPERTIES
1002
{
1000
PbHidd
1002
}
  0
ELLIPSE
  5
F0
330
1F
100
AcDbEntity
  8
HIDDEN
100
AcDbEllipse
 10
739.7472221513641
 20
0.0
 30
0.0
 11
57.42763043168988
 21
57.2532395864519
 31
0.0
210
0.0
220
0.0
230
1.0
 40
0.2286735514460237
 41
-2.340765761960745
 42
-2.286461101591485
1001
DBPROPERTIES
1002
{
1000
PbHidd
1002
}
  0
ELLIPSE
  5
F1
330
1F
100
AcDbEntity
  8
HIDDEN
100
AcDbEllipse
 10
688.1284271247462
 20
0.0
 30
0.0
 11
-58.51647656590913
 21
58.51647656590913
 31
0.0
210
0.0
220
0.0
230
1.0
 40
0.0874886635259238
 41
-1.901065898641152
 42
-1.011689169379947
1001
DBPROPERTIES
1002
{
1000
PbHidd
1002
}
  0
ELLIPSE
  5
F2
330
1F
100
AcDbEntity
  8
HIDDEN
100
AcDbEllipse
 10
630.8527778486358
 20
0.0
 30
0.0
 11
58.82709495224757
 21
58.66536875036347
 31
0.0
210
0.0
220
0.0
230
1.0
 40
0.0503184127267528
 41
0.9748370804975611
 42
1.029141740866819
1001
DBPROPERTIES
1002
{
1000
PbHidd
1002
}
  0
ELLIPSE
  5
F3
330
1F
100
AcDbEntity
  8
HIDDEN
100
AcDbEllipse
 10
682.4715728752537
 20
0.0
 30
0.0
 11
-58.51647656590913
 21
58.51647656590913
 31
0.0
210
0.0
220
0.0
230
1.0
 40
0.0874886635259238
 41
-1.955370559010411
 42
-1.06599382974921
1001
DBPROPERTIES
1002
{
1000
PbHidd
1002
}
  0
ELLIPSE
  5
F4
330
1F
100
AcDbEntity
  8
HIDDEN
100
AcDbEllipse
 10
739.7472221513641
 20
0.0
 30
0.0
 11
58.44952232079819
 21
58.28458459668979
 31
0.0
210
0.0
220
0.0
230
1.0
 40
0.1248997144830969
 41
1.938403692262313
 42
1.992708352631573
1001
DBPROPERTIES
1002
{
1000
PbHidd
1002
}
  0
ELLIPSE
  5
F5
330
1F
100
AcDbEntity
  8
HIDDEN
100
AcDbEllipse
 10
688.1284271247462
 20
0.0
 30
0.0
 11
-53.2365194105328
 21
53.23651941053284
 31
0.0
210
0.0
220
0.0
230
1.0
 40
0.4663076581549985
 41
-1.552000048242286
 42
-0.6626233189810805
1001
DBPROPERTIES
1002
{
1000
PbHidd
1002
}
  0
ELLIPSE
  5
F6
330
1F
100
AcDbEntity
  8
HIDDEN
100
AcDbEllipse
 10
630.8527778486358
 20
0.0
 30
0.0
 11
54.2987524529999
 21
54.0859871629353
 31
0.0
210
0.0
220
0.0
230
1.0
 40
0.4220156026937359
 41
0.6270394604783184
 42
0.6813441208475779
1001
DBPROPERTIES
1002
{
1000
PbHidd
1002
}
  0
ELLIPSE
  5
F7
330
1F
100
AcDbEntity
  8
HIDDEN
100
AcDbEllipse
 10
682.4715728752537
 20
0.0
 30
0.0
 11
-53.2365194105328
 21
53.23651941053284
 31
0.0
210
0.0
220
0.0
230
1.0
 40
0.4663076581549985
 41
-1.606304708611546
 42
-0.7169279793503417
1001
DBPROPERTIES
1002
{
1000
PbHidd
1002
}
  0
ELLIPSE
  5
F8
330
1F
100
AcDbEntity
  8
HIDDEN
100
AcDbEllipse
 10
739.7472221513641
 20
0.0
 30
0.0
 11
52.47640601048457
 21
52.23103094067209
 31
0.0
210
0.0
220
0.0
230
1.0
 40
0.5121495911694757
 41
1.590891908912177
 42
1.645196569281437
1001
DBPROPERTIES
1002
{
1000
PbHidd
1002
}
  0
LINE
  5
F9
330
1F
100
AcDbEntity
  8
HIDDEN
100
AcDbLine
 10
639.1
 20
58.74
 30
0.0
 11
639.1
 21
-58.74
 31
0.0
1001
DBPROPERTIES
1002
{
1000
PbHidd
1002
}
  0
LINE
  5
FA
330
1F
100
AcDbEntity
  8
HIDDEN
100
AcDbLine
 10
703.9223558762233
 20
134.7790493854209
 30
0.0
 11
709.1704666722726
 21
22.91900290777313
 31
0.0
1001
DBPROPERTIES
1002
{
1000
PbHidd
1002
}
  0
LINE
  5
FB
330
1F
100
AcDbEntity
  8
HIDDEN
100
AcDbLine
 10
663.8492169990303
 20
160.5375665369285
 30
0.0
 11
658.6519508451103
 21
56.44271690197294
 31
0.0
1001
DBPROPERTIES
1002
{
1000
PbHidd
1002
}
  0
ELLIPSE
  5
FC
330
1F
100
AcDbEntity
  8
HIDDEN
100
AcDbEllipse
 10
683.8857864376268
 20
-0.9090389553440857
 30
0.0
 11
105.9803757999436
 21
-164.8761958115929
 31
0.0
210
0.0
220
0.0
230
1.0
 40
0.5416752204197016
 41
2.125955565250323
 42
2.416115118292173
1001
DBPROPERTIES
1002
{
1000
PbHidd
1002
}
  0
LINE
  5
FD
330
1F
100
AcDbEntity
  8
HIDDEN
100
AcDbLine
 10
661.4295333277273
 20
57.24243915789405
 30
0.0
 11
666.6776441237765
 21
162.3556444476166
 31
0.0
1001
DBPROPERTIES
1002
{
1000
PbHidd
1002
}
  0
LINE
  5
FE
330
1F
100
AcDbEntity
  8
HIDDEN
100
AcDbLine
 10
663.8492169990303
 20
160.5375665369285
 30
0.0
 11
666.6776441237765
 21
162.3556444476166
 31
0.0
1001
DBPROPERTIES
1002
{
1000
PbHidd
1002
}
  0
ELLIPSE
  5
FF
330
1F
100
AcDbEntity
  8
HIDDEN
100
AcDbEllipse
 10
686.7142135623731
 20
0.9090389553440893
 30
0.0
 11
-105.9803757999436
 21
164.8761958115929
 31
0.0
210
0.0
220
0.0
230
1.0
 40
0.5416752204197016
 41
-1.01563708833947
 42
-0.7254775352976207
1001
DBPROPERTIES
1002
{
1000
PbHidd
1002
}
  0
LINE
  5
100
330
1F
100
AcDbEntity
  8
HIDDEN
100
AcDbLine
 10
703.9223558762233
 20
134.7790493854209
 30
0.0
 11
706.7507830009695
 21
136.5971272961091
 31
0.0
1001
DBPROPERTIES
1002
{
1000
PbHidd
1002
}
  0
LINE
  5
101
330
1F
100
AcDbEntity
  8
HIDDEN
100
AcDbLine
 10
706.7507830009695
 20
136.5971272961091
 30
0.0
 11
711.9480491548896
 21
25.82080108518748
 31
0.0
1001
DBPROPERTIES
1002
{
1000
PbHidd
1002
}
  0
LINE
  5
102
330
1F
100
AcDbEntity
  8
HIDDEN
100
AcDbLine
 10
703.9223558762233
 20
12.55258603953896
 30
0.0
 11
709.1704666722726
 21
-17.20771575929999
 31
0.0
1001
DBPROPERTIES
1002
{
1000
PbHidd
1002
}
  0
LINE
  5
103
330
1F
100
AcDbEntity
  8
HIDDEN
100
AcDbLine
 10
663.8492169990303
 20
52.01692389333346
 30
0.0
 11
658.6519508451103
 21
32.78156126130991
 31
0.0
1001
DBPROPERTIES
1002
{
1000
PbHidd
1002
}
  0
ELLIPSE
  5
104
330
1F
100
AcDbEntity
  8
HIDDEN
100
AcDbEllipse
 10
683.8857864376268
 20
-1.392728480640038
 30
0.0
 11
137.5280732593332
 21
-139.6496654688992
 31
0.0
210
0.0
220
0.0
230
1.0
 40
0.1227878039689726
 41
1.549758428591096
 42
1.839917981632945
1001
DBPROPERTIES
1002
{
1000
PbHidd
1002
}
  0
LINE
  5
105
330
1F
100
AcDbEntity
  8
HIDDEN
100
AcDbLine
 10
661.4295333277273
 20
35.37883945700735
 30
0.0
 11
666.6776441237765
 21
54.80238085461353
 31
0.0
1001
DBPROPERTIES
1002
{
1000
PbHidd
1002
}
  0
LINE
  5
106
330
1F
100
AcDbEntity
  8
HIDDEN
100
AcDbLine
 10
663.8492169990303
 20
52.01692389333346
 30
0.0
 11
666.6776441237765
 21
54.80238085461353
 31
0.0
1001
DBPROPERTIES
1002
{
1000
PbHidd
1002
}
  0
ELLIPSE
  5
107
330
1F
100
AcDbEntity
  8
HIDDEN
100
AcDbEllipse
 10
686.7142135623731
 20
1.392728480640038
 30
0.0
 11
-137.5280732593332
 21
139.6496654688992
 31
0.0
210
0.0
220
0.0
230
1.0
 40
0.1227878039689726
 41
-1.591834224998698
 42
-1.301674671956848
1001
DBPROPERTIES
1002
{
1000
PbHidd
1002
}
  0
LINE
  5
108
330
1F
100
AcDbEntity
  8
HIDDEN
100
AcDbLine
 10
703.9223558762233
 20
12.55258603953896
 30
0.0
 11
706.7507830009695
 21
15.33804300081903
 31
0.0
1001
DBPROPERTIES
1002
{
1000
PbHidd
1002
}
  0
LINE
  5
109
330
1F
100
AcDbEntity
  8
HIDDEN
100
AcDbLine
 10
706.7507830009695
 20
15.33804300081903
 30
0.0
 11
711.9480491548896
 21
-14.13393563690149
 31
0.0
1001
DBPROPERTIES
1002
{
1000
PbHidd
1002
}
  0
LINE
  5
10A
330
1F
100
AcDbEntity
  8
HIDDEN
100
AcDbLine
 10
703.9223558762233
 20
-115.5473718206976
 30
0.0
 11
709.1704666722726
 21
-49.2827529801383
 31
0.0
1001
DBPROPERTIES
1002
{
1000
PbHidd
1002
}
  0
LINE
  5
10B
330
1F
100
AcDbEntity
  8
HIDDEN
100
AcDbLine
 10
663.8492169990303
 20
-80.84301554366675
 30
0.0
 11
658.6519508451103
 21
-6.218451219991337
 31
0.0
1001
DBPROPERTIES
1002
{
1000
PbHidd
1002
}
  0
ELLIPSE
  5
10C
330
1F
100
AcDbEntity
  8
HIDDEN
100
AcDbEllipse
 10
683.8857864376268
 20
-1.22474487139159
 30
0.0
 11
128.3121194587635
 21
-148.1620734196171
 31
0.0
210
0.0
220
0.0
230
1.0
 40
0.3535533905932742
 41
-1.32827941666064
 42
-1.03811986361879
1001
DBPROPERTIES
1002
{
1000
PbHidd
1002
}
  0
LINE
  5
10D
330
1F
100
AcDbEntity
  8
HIDDEN
100
AcDbLine
 10
661.4295333277273
 20
-3.038912417816221
 30
0.0
 11
666.6776441237765
 21
-78.39352580088357
 31
0.0
1001
DBPROPERTIES
1002
{
1000
PbHidd
1002
}
  0
LINE
  5
10E
330
1F
100
AcDbEntity
  8
HIDDEN
100
AcDbLine
 10
663.8492169990303
 20
-80.84301554366675
 30
0.0
 11
666.6776441237765
 21
-78.39352580088358
 31
0.0
1001
DBPROPERTIES
1002
{
1000
PbHidd
1002
}
  0
ELLIPSE
  5
10F
330
1F
100
AcDbEntity
  8
HIDDEN
100
AcDbEllipse
 10
686.7142135623731
 20
1.224744871391587
 30
0.0
 11
-128.3121194587635
 21
148.1620734196171
 31
0.0
210
0.0
220
0.0
230
1.0
 40
0.3535533905932742
 41
1.813313236929153
 42
2.103472789971003
1001
DBPROPERTIES
1002
{
1000
PbHidd
1002
}
  0
LINE
  5
110
330
1F
100
AcDbEntity
  8
HIDDEN
100
AcDbLine
 10
703.9223558762233
 20
-115.5473718206976
 30
0.0
 11
706.7507830009695
 21
-113.0978820779144
 31
0.0
1001
DBPROPERTIES
1002
{
1000
PbHidd
1002
}
  0
LINE
  5
111
330
1F
100
AcDbEntity
  8
HIDDEN
100
AcDbLine
 10
706.7507830009695
 20
-113.0978820779144
 30
0.0
 11
711.9480491548896
 21
-47.47524679328676
 31
0.0
1001
DBPROPERTIES
1002
{
1000
PbHidd
1002
}
  0
ELLIPSE
  5
112
330
1F
100
AcDbEntity
  8
HIDDEN
100
AcDbEllipse
 10
682.4715728752537
 20
0.0
 30
0.0
 11
-48.11699108153537
 21
48.11699108153536
 31
0.0
210
0.0
220
0.0
230
1.0
 40
0.7002075382097098
 41
2.530727415391778
 42
2.653502259808145
1001
DBPROPERTIES
1002
{
1000
PbHidd
1002
}
  0
LINE
  5
113
330
1F
100
AcDbEntity
  8
HIDDEN
100
AcDbLine
 10
663.8492169990303
 20
-175.8756095377476
 30
0.0
 11
658.6519508451103
 21
-42.3087812650715
 31
0.0
1001
DBPROPERTIES
1002
{
1000
PbHidd
1002
}
  0
ELLIPSE
  5
114
330
1F
100
AcDbEntity
  8
HIDDEN
100
AcDbEllipse
 10
683.8857864376268
 20
-0.4836895252959526
 30
0.0
 11
63.42865311516419
 21
-185.4529750745352
 31
0.0
210
0.0
220
0.0
230
1.0
 40
0.6644630243886748
 41
-0.6204431227679528
 42
-0.3302835697261031
1001
DBPROPERTIES
1002
{
1000
PbHidd
1002
}
  0
LINE
  5
115
330
1F
100
AcDbEntity
  8
HIDDEN
100
AcDbLine
 10
703.9223558762233
 20
-189.5814302400345
 30
0.0
 11
709.1704666722726
 21
-58.29784236478039
 31
0.0
1001
DBPROPERTIES
1002
{
1000
PbHidd
1002
}
  0
LINE
  5
116
330
1F
100
AcDbEntity
  8
HIDDEN
100
AcDbLine
 10
661.4295333277273
 20
-40.03472339859405
 30
0.0
 11
666.6776441237765
 21
-174.9082304871557
 31
0.0
1001
DBPROPERTIES
1002
{
1000
PbHidd
1002
}
  0
LINE
  5
117
330
1F
100
AcDbEntity
  8
HIDDEN
100
AcDbLine
 10
663.8492169990303
 20
-175.8756095377476
 30
0.0
 11
666.6776441237765
 21
-174.9082304871557
 31
0.0
1001
DBPROPERTIES
1002
{
1000
PbHidd
1002
}
  0
ELLIPSE
  5
118
330
1F
100
AcDbEntity
  8
HIDDEN
100
AcDbEllipse
 10
686.7142135623731
 20
0.4836895252959482
 30
0.0
 11
-63.42865311516419
 21
185.4529750745352
 31
0.0
210
0.0
220
0.0
230
1.0
 40
0.6644630243886748
 41
2.521149530821841
 42
2.81130908386369
1001
DBPROPERTIES
1002
{
1000
PbHidd
1002
}
  0
LINE
  5
119
330
1F
100
AcDbEntity
  8
HIDDEN
100
AcDbLine
 10
703.9223558762233
 20
-189.5814302400345
 30
0.0
 11
706.7507830009695
 21
-188.6140511894426
 31
0.0
1001
DBPROPERTIES
1002
{
1000
PbHidd
1002
}
  0
LINE
  5
11A
330
1F
100
AcDbEntity
  8
HIDDEN
100
AcDbLine
 10
706.7507830009695
 20
-188.6140511894426
 30
0.0
 11
711.9480491548896
 21
-58.6023623464973
 31
0.0
1001
DBPROPERTIES
1002
{
1000
PbHidd
1002
}
  0
ELLIPSE
  5
11B
330
1F
100
AcDbEntity
  8
HIDDEN
100
AcDbEllipse
 10
739.7472221513641
 20
0.0
 30
0.0
 11
49.56240444921587
 21
49.23283459091867
 31
0.0
210
0.0
220
0.0
230
1.0
 40
0.6464432560596767
 41
-2.687450734361731
 42
-2.633146073992471
1001
DBPROPERTIES
1002
{
1000
PbHidd
1002
}
  0
ELLIPSE
  5
11C
330
1F
100
AcDbEntity
  8
HIDDEN
100
AcDbEllipse
 10
688.1284271247462
 20
0.0
 30
0.0
 11
-48.11699108153537
 21
48.11699108153536
 31
0.0
210
0.0
220
0.0
230
1.0
 40
0.7002075382097098
 41
2.530727415391778
 42
2.599197599438884
1001
DBPROPERTIES
1002
{
1000
PbHidd
1002
}
  0
ELLIPSE
  5
11D
330
1F
100
AcDbEntity
  8
HIDDEN
100
AcDbEllipse
 10
682.4715728752537
 20
0.0
 30
0.0
 11
48.11699108153537
 21
48.11699108153539
 31
0.0
210
0.0
220
0.0
230
1.0
 40
0.7002075382097094
 41
-2.530727415391778
 42
-1.709820870177679
1001
DBPROPERTIES
1002
{
1000
PbHidd
1002
}
  0
LINE
  5
11E
330
1F
100
AcDbEntity
  8
HIDDEN
100
AcDbLine
 10
663.8492169990303
 20
-188.6140511894426
 30
0.0
 11
658.6519508451103
 21
-58.60236234649736
 31
0.0
1001
DBPROPERTIES
1002
{
1000
PbHidd
1002
}
  0
ELLIPSE
  5
11F
330
1F
100
AcDbEntity
  8
HIDDEN
100
AcDbEllipse
 10
683.8857864376268
 20
0.4836895252959485
 30
0.0
 11
-63.42865311516422
 21
-185.4529750745352
 31
0.0
210
0.0
220
0.0
230
1.0
 40
0.6644630243886746
 41
0.3302835697261034
 42
0.6204431227679532
1001
DBPROPERTIES
1002
{
1000
PbHidd
1002
}
  0
LINE
  5
120
330
1F
100
AcDbEntity
  8
HIDDEN
100
AcDbLine
 10
703.9223558762233
 20
-174.9082304871557
 30
0.0
 11
709.1704666722726
 21
-40.03472339859411
 31
0.0
1001
DBPROPERTIES
1002
{
1000
PbHidd
1002
}
  0
LINE
  5
121
330
1F
100
AcDbEntity
  8
HIDDEN
100
AcDbLine
 10
661.4295333277273
 20
-58.29784236478042
 30
0.0
 11
666.6776441237765
 21
-189.5814302400345
 31
0.0
1001
DBPROPERTIES
1002
{
1000
PbHidd
1002
}
  0
LINE
  5
122
330
1F
100
AcDbEntity
  8
HIDDEN
100
AcDbLine
 10
663.8492169990303
 20
-188.6140511894426
 30
0.0
 11
666.6776441237765
 21
-189.5814302400345
 31
0.0
1001
DBPROPERTIES
1002
{
1000
PbHidd
1002
}
  0
ELLIPSE
  5
123
330
1F
100
AcDbEntity
  8
HIDDEN
100
AcDbEllipse
 10
686.7142135623731
 20
-0.4836895252959529
 30
0.0
 11
63.42865311516422
 21
185.4529750745352
 31
0.0
210
0.0
220
0.0
230
1.0
 40
0.6644630243886746
 41
-2.81130908386369
 42
-2.52114953082184
1001
DBPROPERTIES
1002
{
1000
PbHidd
1002
}
  0
LINE
  5
124
330
1F
100
AcDbEntity
  8
HIDDEN
100
AcDbLine
 10
703.9223558762233
 20
-174.9082304871557
 30
0.0
 11
706.7507830009695
 21
-175.8756095377476
 31
0.0
1001
DBPROPERTIES
1002
{
1000
PbHidd
1002
}
  0
LINE
  5
125
330
1F
100
AcDbEntity
  8
HIDDEN
100
AcDbLine
 10
706.7507830009695
 20
-175.8756095377476
 30
0.0
 11
711.9480491548896
 21
-42.30878126507147
 31
0.0
1001
DBPROPERTIES
1002
{
1000
PbHidd
1002
}
  0
ELLIPSE
  5
126
330
1F
100
AcDbEntity
  8
HIDDEN
100
AcDbEllipse
 10
739.7472221513641
 20
0.0
 30
0.0
 11
-47.13847661929216
 21
46.66553653820667
 31
0.0
210
0.0
220
0.0
230
1.0
 40
0.7568156239209651
 41
1.667978424992606
 42
1.722283085361866
1001
DBPROPERTIES
1002
{
1000
PbHidd
1002
}
  0
ELLIPSE
  5
127
330
1F
100
AcDbEntity
  8
HIDDEN
100
AcDbEllipse
 10
688.1284271247462
 20
0.0
 30
0.0
 11
48.11699108153537
 21
48.11699108153539
 31
0.0
210
0.0
220
0.0
230
1.0
 40
0.7002075382097094
 41
-2.530727415391778
 42
-1.76412553054694
1001
DBPROPERTIES
1002
{
1000
PbHidd
1002
}
  0
LINE
  5
128
330
1F
100
AcDbEntity
  8
HIDDEN
100
AcDbLine
 10
703.9223558762233
 20
-78.39352580088354
 30
0.0
 11
709.1704666722726
 21
-3.038912417816249
 31
0.0
1001
DBPROPERTIES
1002
{
1000
PbHidd
1002
}
  0
ELLIPSE
  5
129
330
1F
100
AcDbEntity
  8
HIDDEN
100
AcDbEllipse
 10
682.4715728752537
 20
0.0
 30
0.0
 11
56.73848303621986
 21
56.73848303621986
 31
0.0
210
0.0
220
0.0
230
1.0
 40
0.2679491924311226
 41
-2.250131749040018
 42
-1.360755019778813
1001
DBPROPERTIES
1002
{
1000
PbHidd
1002
}
  0
LINE
  5
12A
330
1F
100
AcDbEntity
  8
HIDDEN
100
AcDbLine
 10
663.8492169990303
 20
-113.0978820779144
 30
0.0
 11
658.6519508451103
 21
-47.47524679328679
 31
0.0
1001
DBPROPERTIES
1002
{
1000
PbHidd
1002
}
  0
ELLIPSE
  5
12B
330
1F
100
AcDbEntity
  8
HIDDEN
100
AcDbEllipse
 10
683.8857864376268
 20
1.224744871391588
 30
0.0
 11
-128.3121194587635
 21
-148.1620734196171
 31
0.0
210
0.0
220
0.0
230
1.0
 40
0.3535533905932736
 41
1.038119863618791
 42
1.328279416660641
1001
DBPROPERTIES
1002
{
1000
PbHidd
1002
}
  0
ELLIPSE
  5
12C
330
1F
100
AcDbEntity
  8
HIDDEN
100
AcDbEllipse
 10
630.8527778486358
 20
0.0
 30
0.0
 11
-57.42763043168987
 21
57.25323958645188
 31
0.0
210
0.0
220
0.0
230
1.0
 40
0.2286735514460238
 41
2.286461101591486
 42
2.340765761960744
1001
DBPROPERTIES
1002
{
1000
PbHidd
1002
}
  0
LINE
  5
12D
330
1F
100
AcDbEntity
  8
HIDDEN
100
AcDbLine
 10
661.4295333277273
 20
-49.28275298013831
 30
0.0
 11
666.6776441237765
 21
-115.5473718206976
 31
0.0
1001
DBPROPERTIES
1002
{
1000
PbHidd
1002
}
  0
LINE
  5
12E
330
1F
100
AcDbEntity
  8
HIDDEN
100
AcDbLine
 10
663.8492169990303
 20
-113.0978820779144
 30
0.0
 11
666.6776441237765
 21
-115.5473718206976
 31
0.0
1001
DBPROPERTIES
1002
{
1000
PbHidd
1002
}
  0
ELLIPSE
  5
12F
330
1F
100
AcDbEntity
  8
HIDDEN
100
AcDbEllipse
 10
686.7142135623731
 20
-1.22474487139159
 30
0.0
 11
128.3121194587635
 21
148.1620734196171
 31
0.0
210
0.0
220
0.0
230
1.0
 40
0.3535533905932736
 41
-2.103472789971002
 42
-1.813313236929152
1001
DBPROPERTIES
1002
{
1000
PbHidd
1002
}
  0
LINE
  5
130
330
1F
100
AcDbEntity
  8
HIDDEN
100
AcDbLine
 10
703.9223558762233
 20
-78.39352580088354
 30
0.0
 11
706.7507830009695
 21
-80.84301554366671
 31
0.0
1001
DBPROPERTIES
1002
{
1000
PbHidd
1002
}
  0
LINE
  5
131
330
1F
100
AcDbEntity
  8
HIDDEN
100
AcDbLine
 10
706.7507830009695
 20
-80.84301554366672
 30
0.0
 11
711.9480491548896
 21
-6.218451219991351
 31
0.0
1001
DBPROPERTIES
1002
{
1000
PbHidd
1002
}
  0
ELLIPSE
  5
132
330
1F
100
AcDbEntity
  8
HIDDEN
100
AcDbEllipse
 10
739.7472221513641
 20
0.0
 30
0.0
 11
-56.30754538646486
 21
56.12129355810691
 31
0.0
210
0.0
220
0.0
230
1.0
 40
0.3080091825924699
 41
1.32283267241614
 42
1.3771373327854
1001
DBPROPERTIES
1002
{
1000
PbHidd
1002
}
  0
ELLIPSE
  5
133
330
1F
100
AcDbEntity
  8
HIDDEN
100
AcDbEllipse
 10
688.1284271247462
 20
0.0
 30
0.0
 11
56.73848303621986
 21
56.73848303621986
 31
0.0
210
0.0
220
0.0
230
1.0
 40
0.2679491924311226
 41
-2.304436409409279
 42
-1.415059680148074
1001
DBPROPERTIES
1002
{
1000
PbHidd
1002
}
  0
LINE
  5
134
330
1F
100
AcDbEntity
  8
HIDDEN
100
AcDbLine
 10
703.9223558762233
 20
54.8023808546135
 30
0.0
 11
709.1704666722726
 21
35.37883945700733
 31
0.0
1001
DBPROPERTIES
1002
{
1000
PbHidd
1002
}
  0
ELLIPSE
  5
135
330
1F
100
AcDbEntity
  8
HIDDEN
100
AcDbEllipse
 10
682.4715728752537
 20
0.0
 30
0.0
 11
58.51647656590912
 21
58.51647656590912
 31
0.0
210
0.0
220
0.0
230
1.0
 40
0.0874886635259241
 41
1.011689169379945
 42
1.901065898641152
1001
DBPROPERTIES
1002
{
1000
PbHidd
1002
}
  0
LINE
  5
136
330
1F
100
AcDbEntity
  8
HIDDEN
100
AcDbLine
 10
663.8492169990303
 20
15.33804300081902
 30
0.0
 11
658.6519508451103
 21
-14.13393563690148
 31
0.0
1001
DBPROPERTIES
1002
{
1000
PbHidd
1002
}
  0
ELLIPSE
  5
137
330
1F
100
AcDbEntity
  8
HIDDEN
100
AcDbEllipse
 10
683.8857864376268
 20
1.392728480640038
 30
0.0
 11
-137.5280732593332
 21
-139.6496654688993
 31
0.0
210
0.0
220
0.0
230
1.0
 40
0.1227878039689729
 41
-1.839917981632946
 42
-1.549758428591096
1001
DBPROPERTIES
1002
{
1000
PbHidd
1002
}
  0
ELLIPSE
  5
138
330
1F
100
AcDbEntity
  8
HIDDEN
100
AcDbEllipse
 10
630.8527778486358
 20
0.0
 30
0.0
 11
-58.44952232079816
 21
58.2845845966898
 31
0.0
210
0.0
220
0.0
230
1.0
 40
0.1248997144830966
 41
-1.992708352631571
 42
-1.938403692262311
1001
DBPROPERTIES
1002
{
1000
PbHidd
1002
}
  0
LINE
  5
139
330
1F
100
AcDbEntity
  8
HIDDEN
100
AcDbLine
 10
661.4295333277273
 20
-17.20771575929998
 30
0.0
 11
666.6776441237765
 21
12.55258603953894
 31
0.0
1001
DBPROPERTIES
1002
{
1000
PbHidd
1002
}
  0
LINE
  5
13A
330
1F
100
AcDbEntity
  8
HIDDEN
100
AcDbLine
 10
663.8492169990303
 20
15.33804300081902
 30
0.0
 11
666.6776441237765
 21
12.55258603953895
 31
0.0
1001
DBPROPERTIES
1002
{
1000
PbHidd
1002
}
  0
ELLIPSE
  5
13B
330
1F
100
AcDbEntity
  8
HIDDEN
100
AcDbEllipse
 10
686.7142135623731
 20
-1.392728480640037
 30
0.0
 11
137.5280732593332
 21
139.6496654688993
 31
0.0
210
0.0
220
0.0
230
1.0
 40
0.1227878039689729
 41
1.301674671956847
 42
1.591834224998697
1001
DBPROPERTIES
1002
{
1000
PbHidd
1002
}
  0
LINE
  5
13C
330
1F
100
AcDbEntity
  8
HIDDEN
100
AcDbLine
 10
703.9223558762233
 20
54.8023808546135
 30
0.0
 11
706.7507830009695
 21
52.01692389333343
 31
0.0
1001
DBPROPERTIES
1002
{
1000
PbHidd
1002
}
  0
LINE
  5
13D
330
1F
100
AcDbEntity
  8
HIDDEN
100
AcDbLine
 10
706.7507830009695
 20
52.01692389333343
 30
0.0
 11
711.9480491548896
 21
32.7815612613099
 31
0.0
1001
DBPROPERTIES
1002
{
1000
PbHidd
1002
}
  0
ELLIPSE
  5
13E
330
1F
100
AcDbEntity
  8
HIDDEN
100
AcDbEllipse
 10
739.7472221513641
 20
0.0
 30
0.0
 11
-58.82709495224759
 21
58.66536875036348
 31
0.0
210
0.0
220
0.0
230
1.0
 40
0.0503184127267525
 41
-1.029141740866821
 42
-0.974837080497562
1001
DBPROPERTIES
1002
{
1000
PbHidd
1002
}
  0
ELLIPSE
  5
13F
330
1F
100
AcDbEntity
  8
HIDDEN
100
AcDbEllipse
 10
688.1284271247462
 20
0.0
 30
0.0
 11
58.51647656590912
 21
58.51647656590912
 31
0.0
210
0.0
220
0.0
230
1.0
 40
0.0874886635259241
 41
1.065993829749208
 42
1.955370559010412
1001
DBPROPERTIES
1002
{
1000
PbHidd
1002
}
  0
LINE
  5
140
330
1F
100
AcDbEntity
  8
HIDDEN
100
AcDbLine
 10
703.9223558762233
 20
162.3556444476166
 30
0.0
 11
709.1704666722726
 21
57.24243915789408
 31
0.0
1001
DBPROPERTIES
1002
{
1000
PbHidd
1002
}
  0
ELLIPSE
  5
141
330
1F
100
AcDbEntity
  8
HIDDEN
100
AcDbEllipse
 10
682.4715728752537
 20
0.0
 30
0.0
 11
53.23651941053282
 21
53.23651941053282
 31
0.0
210
0.0
220
0.0
230
1.0
 40
0.4663076581549986
 41
0.662623318981081
 42
1.552000048242286
1001
DBPROPERTIES
1002
{
1000
PbHidd
1002
}
  0
LINE
  5
142
330
1F
100
AcDbEntity
  8
HIDDEN
100
AcDbLine
 10
663.8492169990303
 20
136.5971272961091
 30
0.0
 11
658.6519508451103
 21
25.82080108518743
 31
0.0
1001
DBPROPERTIES
1002
{
1000
PbHidd
1002
}
  0
ELLIPSE
  5
143
330
1F
100
AcDbEntity
  8
HIDDEN
100
AcDbEllipse
 10
683.8857864376268
 20
0.909038955344089
 30
0.0
 11
-105.9803757999436
 21
-164.8761958115929
 31
0.0
210
0.0
220
0.0
230
1.0
 40
0.5416752204197018
 41
-2.416115118292173
 42
-2.125955565250323
1001
DBPROPERTIES
1002
{
1000
PbHidd
1002
}
  0
ELLIPSE
  5
144
330
1F
100
AcDbEntity
  8
HIDDEN
100
AcDbEllipse
 10
630.8527778486358
 20
0.0
 30
0.0
 11
-52.47640601048457
 21
52.23103094067213
 31
0.0
210
0.0
220
0.0
230
1.0
 40
0.5121495911694751
 41
-1.645196569281437
 42
-1.590891908912176
1001
DBPROPERTIES
1002
{
1000
PbHidd
1002
}
  0
LINE
  5
145
330
1F
100
AcDbEntity
  8
HIDDEN
100
AcDbLine
 10
661.4295333277273
 20
22.91900290777306
 30
0.0
 11
666.6776441237765
 21
134.7790493854209
 31
0.0
1001
DBPROPERTIES
1002
{
1000
PbHidd
1002
}
  0
LINE
  5
146
330
1F
100
AcDbEntity
  8
HIDDEN
100
AcDbLine
 10
663.8492169990303
 20
136.5971272961091
 30
0.0
 11
666.6776441237765
 21
134.7790493854209
 31
0.0
1001
DBPROPERTIES
1002
{
1000
PbHidd
1002
}
  0
ELLIPSE
  5
147
330
1F
100
AcDbEntity
  8
HIDDEN
100
AcDbEllipse
 10
686.7142135623731
 20
-0.9090389553440854
 30
0.0
 11
105.9803757999436
 21
164.8761958115929
 31
0.0
210
0.0
220
0.0
230
1.0
 40
0.5416752204197018
 41
0.7254775352976202
 42
1.01563708833947
1001
DBPROPERTIES
1002
{
1000
PbHidd
1002
}
  0
LINE
  5
148
330
1F
100
AcDbEntity
  8
HIDDEN
100
AcDbLine
 10
703.9223558762233
 20
162.3556444476166
 30
0.0
 11
706.7507830009695
 21
160.5375665369285
 31
0.0
1001
DBPROPERTIES
1002
{
1000
PbHidd
1002
}
  0
LINE
  5
149
330
1F
100
AcDbEntity
  8
HIDDEN
100
AcDbLine
 10
706.7507830009695
 20
160.5375665369285
 30
0.0
 11
711.9480491548896
 21
56.44271690197297
 31
0.0
1001
DBPROPERTIES
1002
{
1000
PbHidd
1002
}
  0
ELLIPSE
  5
14A
330
1F
100
AcDbEntity
  8
HIDDEN
100
AcDbEllipse
 10
739.7472221513641
 20
0.0
 30
0.0
 11
-54.29875245299989
 21
54.08598716293529
 31
0.0
210
0.0
220
0.0
230
1.0
 40
0.4220156026937354
 41
-0.6813441208475783
 42
-0.6270394604783186
1001
DBPROPERTIES
1002
{
1000
PbHidd
1002
}
  0
ELLIPSE
  5
14B
330
1F
100
AcDbEntity
  8
HIDDEN
100
AcDbEllipse
 10
688.1284271247462
 20
0.0
 30
0.0
 11
53.23651941053282
 21
53.23651941053282
 31
0.0
210
0.0
220
0.0
230
1.0
 40
0.4663076581549986
 41
0.7169279793503424
 42
1.606304708611546
1001
DBPROPERTIES
1002
{
1000
PbHidd
1002
}
  0
ELLIPSE
  5
14C
330
1F
100
AcDbEntity
  8
HIDDEN
100
AcDbEllipse
 10
682.4715728752537
 20
0.0
 30
0.0
 11
-58.74000000000001
 21
0.0
 31
0.0
210
0.0
220
0.0
230
1.0
 40
0.9999999999999999
 41
-1.570796326794897
 42
-1.153260292348925
1001
DBPROPERTIES
1002
{
1000
PbHidd
1002
}
  0
LINE
  5
14D
330
1F
100
AcDbEntity
  8
HIDDEN
100
AcDbLine
 10
663.8492169990303
 20
193.9408976215811
 30
0.0
 11
658.6519508451103
 21
53.69369801327815
 31
0.0
1001
DBPROPERTIES
1002
{
1000
PbHidd
1002
}
  0
ELLIPSE
  5
14E
330
1F
100
AcDbEntity
  8
HIDDEN
100
AcDbEllipse
 10
683.8857864376268
 20
0.0000000000000024
 30
0.0
 11
0.0
 21
-196.0
 31
0.0
210
0.0
220
0.0
230
1.0
 40
0.7071067811865476
 41
2.996512877068868
 42
3.141592653589793
1001
DBPROPERTIES
1002
{
1000
PbHidd
1002
}
  0
ELLIPSE
  5
14F
330
1F
100
AcDbEntity
  8
HIDDEN
100
AcDbEllipse
 10
683.8857864376268
 20
0.0000000000000024
 30
0.0
 11
0.0
 21
-196.0
 31
0.0
210
0.0
220
0.0
230
1.0
 40
0.7071067811865476
 41
3.141592653589793
 42
3.286672430110718
1001
DBPROPERTIES
1002
{
1000
PbHidd
1002
}
  0
LINE
  5
150
330
1F
100
AcDbEntity
  8
HIDDEN
100
AcDbLine
 10
703.9223558762233
 20
193.9408976215811
 30
0.0
 11
709.1704666722726
 21
52.32166539795449
 31
0.0
1001
DBPROPERTIES
1002
{
1000
PbHidd
1002
}
  0
ELLIPSE
  5
151
330
1F
100
AcDbEntity
  8
HIDDEN
100
AcDbEllipse
 10
630.8527778486358
 20
0.0
 30
0.0
 11
43.8940325633456
 21
42.29754129067624
 31
0.0
210
0.0
220
0.0
230
1.0
 40
0.928579909401891
 41
0.2950369953998638
 42
0.3493416557691237
1001
DBPROPERTIES
1002
{
1000
PbHidd
1002
}
  0
LINE
  5
152
330
1F
100
AcDbEntity
  8
HIDDEN
100
AcDbLine
 10
661.4295333277273
 20
52.32166539795446
 30
0.0
 11
666.6776441237765
 21
193.9408976215811
 31
0.0
1001
DBPROPERTIES
1002
{
1000
PbHidd
1002
}
  0
LINE
  5
153
330
1F
100
AcDbEntity
  8
HIDDEN
100
AcDbLine
 10
663.8492169990303
 20
193.9408976215811
 30
0.0
 11
666.6776441237765
 21
193.9408976215811
 31
0.0
1001
DBPROPERTIES
1002
{
1000
PbHidd
1002
}
  0
ELLIPSE
  5
154
330
1F
100
AcDbEntity
  8
HIDDEN
100
AcDbEllipse
 10
686.7142135623731
 20
0.0000000000000024
 30
0.0
 11
0.0
 21
196.0
 31
0.0
210
0.0
220
0.0
230
1.0
 40
0.7071067811865476
 41
0.0
 42
0.1450797765209249
1001
DBPROPERTIES
1002
{
1000
PbHidd
1002
}
  0
ELLIPSE
  5
155
330
1F
100
AcDbEntity
  8
HIDDEN
100
AcDbEllipse
 10
686.7142135623731
 20
0.0000000000000024
 30
0.0
 11
0.0
 21
196.0
 31
0.0
210
0.0
220
0.0
230
1.0
 40
0.7071067811865476
 41
-0.1450797765209249
 42
0.0
1001
DBPROPERTIES
1002
{
1000
PbHidd
1002
}
  0
LINE
  5
156
330
1F
100
AcDbEntity
  8
HIDDEN
100
AcDbLine
 10
703.9223558762233
 20
193.9408976215811
 30
0.0
 11
706.7507830009695
 21
193.9408976215811
 31
0.0
1001
DBPROPERTIES
1002
{
1000
PbHidd
1002
}
  0
LINE
  5
157
330
1F
100
AcDbEntity
  8
HIDDEN
100
AcDbLine
 10
706.7507830009695
 20
193.9408976215811
 30
0.0
 11
711.9480491548896
 21
53.69369801327809
 31
0.0
1001
DBPROPERTIES
1002
{
1000
PbHidd
1002
}
  0
ELLIPSE
  5
158
330
1F
100
AcDbEntity
  8
HIDDEN
100
AcDbEllipse
 10
688.1284271247462
 20
0.0
 30
0.0
 11
-58.74000000000001
 21
0.0
 31
0.0
210
0.0
220
0.0
230
1.0
 40
0.9999999999999999
 41
-1.570796326794897
 42
-1.098955631979663
1001
DBPROPERTIES
1002
{
1000
PbHidd
1002
}
  0
LINE
  5
159
330
1F
100
AcDbEntity
  8
HIDDEN
100
AcDbLine
 10
736.995585092537
 20
58.73999999999999
 30
0.0
 11
736.995585092537
 21
0.0000000000000036
 31
0.0
1001
DBPROPERTIES
1002
{
1000
PbHidd
1002
}
  0
LINE
  5
15A
330
1F
100
AcDbEntity
  8
HIDDEN
100
AcDbLine
 10
570.11
 20
61.41
 30
0.0
 11
570.11
 21
0.0000000000000038
 31
0.0
1001
DBPROPERTIES
1002
{
1000
PbHidd
1002
}
  0
LINE
  5
15B
330
1F
100
AcDbEntity
  8
HIDDEN
100
AcDbLine
 10
562.1
 20
53.40000000000001
 30
0.0
 11
562.1
 21
42.17371327433618
 31
0.0
1001
DBPROPERTIES
1002
{
1000
PbHidd
1002
}
  0
LINE
  5
15C
330
1F
100
AcDbEntity
  8
HIDDEN
100
AcDbLine
 10
562.0999999999999
 20
42.17371327433618
 30
0.0
 11
562.0999999999999
 21
42.17371327433618
 31
0.0
1001
DBPROPERTIES
1002
{
1000
PbHidd
1002
}
  0
LINE
  5
15D
330
1F
100
AcDbEntity
  8
HIDDEN
100
AcDbLine
 10
562.0999999999999
 20
42.17371327433618
 30
0.0
 11
562.0999999999999
 21
42.17371327433618
 31
0.0
1001
DBPROPERTIES
1002
{
1000
PbHidd
1002
}
  0
LINE
  5
15E
330
1F
100
AcDbEntity
  8
HIDDEN
100
AcDbLine
 10
536.3900000000001
 20
-38.47504675324673
 30
0.0
 11
536.3900000000001
 21
-38.47504675324673
 31
0.0
1001
DBPROPERTIES
1002
{
1000
PbHidd
1002
}
  0
LINE
  5
15F
330
1F
100
AcDbEntity
  8
HIDDEN
100
AcDbLine
 10
536.3900000000001
 20
38.47504675324658
 30
0.0
 11
536.3900000000001
 21
38.47504675324658
 31
0.0
1001
DBPROPERTIES
1002
{
1000
PbHidd
1002
}
  0
LINE
  5
160
330
1F
100
AcDbEntity
  8
HIDDEN
100
AcDbLine
 10
536.3900000000001
 20
-38.47504675324673
 30
0.0
 11
536.3900000000001
 21
-38.47504675324673
 31
0.0
1001
DBPROPERTIES
1002
{
1000
PbHidd
1002
}
  0
LINE
  5
161
330
1F
100
AcDbEntity
  8
HIDDEN
100
AcDbLine
 10
536.3900000000001
 20
38.47504675324658
 30
0.0
 11
536.3900000000001
 21
38.47504675324658
 31
0.0
1001
DBPROPERTIES
1002
{
1000
PbHidd
1002
}
  0
LINE
  5
162
330
1F
100
AcDbEntity
  8
THICK
100
AcDbLine
 10
536.3900000000001
 20
38.47504675324658
 30
0.0
 11
536.3900000000001
 21
0.0000000000000028
 31
0.0
1001
DBPROPERTIES
1002
{
1000
PbThick
1002
}
  0
LINE
  5
163
330
1F
100
AcDbEntity
  8
THICK
100
AcDbLine
 10
525.71
 20
45.14103116883103
 30
0.0
 11
525.71
 21
0.0000000000000035
 31
0.0
1001
DBPROPERTIES
1002
{
1000
PbThick
1002
}
  0
LINE
  5
164
330
1F
100
AcDbEntity
  8
HIDDEN
100
AcDbLine
 10
562.1
 20
-42.1737132743363
 30
0.0
 11
562.1
 21
-42.1737132743363
 31
0.0
1001
DBPROPERTIES
1002
{
1000
PbHidd
1002
}
  0
LINE
  5
165
330
1F
100
AcDbEntity
  8
HIDDEN
100
AcDbLine
 10
562.1
 20
-42.1737132743363
 30
0.0
 11
562.1
 21
-42.1737132743363
 31
0.0
1001
DBPROPERTIES
1002
{
1000
PbHidd
1002
}
  0
LINE
  5
166
330
1F
100
AcDbEntity
  8
HIDDEN
100
AcDbLine
 10
608.3
 20
101.46
 30
0.0
 11
608.3
 21
-101.46
 31
0.0
1001
DBPROPERTIES
1002
{
1000
PbHidd
1002
}
  0
LINE
  5
167
330
1F
100
AcDbEntity
  8
HIDDEN
100
AcDbLine
 10
582.22
 20
0.0000000000000038
 30
0.0
 11
582.22
 21
-61.41
 31
0.0
1001
DBPROPERTIES
1002
{
1000
PbHidd
1002
}
  0
LINE
  5
168
330
1F
100
AcDbEntity
  8
HIDDEN
100
AcDbLine
 10
592.9
 20
101.46
 30
0.0
 11
592.9
 21
-101.46
 31
0.0
1001
DBPROPERTIES
1002
{
1000
PbHidd
1002
}
  0
LINE
  5
169
330
1F
100
AcDbEntity
  8
THICK
100
AcDbLine
 10
346.5000000000001
 20
32.04
 30
0.0
 11
346.5000000000001
 21
-32.04
 31
0.0
1001
DBPROPERTIES
1002
{
1000
PbThick
1002
}
  0
LINE
  5
16A
330
1F
100
AcDbEntity
  8
THICK
100
AcDbLine
 10
350.3500000000001
 20
35.71
 30
0.0
 11
350.3500000000001
 21
0.0000000000000022
 31
0.0
1001
DBPROPERTIES
1002
{
1000
PbThick
1002
}
  0
LINE
  5
16B
330
1F
100
AcDbEntity
  8
THICK
100
AcDbLine
 10
371.7100000000001
 20
57.07
 30
0.0
 11
371.7100000000001
 21
0.0000000000000035
 31
0.0
1001
DBPROPERTIES
1002
{
1000
PbThick
1002
}
  0
LINE
  5
16C
330
1F
100
AcDbEntity
  8
HIDDEN
100
AcDbLine
 10
567.721
 20
38.4479999999999
 30
0.0
 11
567.721
 21
38.4479999999999
 31
0.0
1001
DBPROPERTIES
1002
{
1000
PbHidd
1002
}
  0
LINE
  5
16D
330
1F
100
AcDbEntity
  8
HIDDEN
100
AcDbLine
 10
567.721
 20
38.4479999999999
 30
0.0
 11
567.721
 21
38.4479999999999
 31
0.0
1001
DBPROPERTIES
1002
{
1000
PbHidd
1002
}
  0
LINE
  5
16E
330
1F
100
AcDbEntity
  8
HIDDEN
100
AcDbLine
 10
480.711
 20
96.11999999999999
 30
0.0
 11
480.711
 21
96.11999999999999
 31
0.0
1001
DBPROPERTIES
1002
{
1000
PbHidd
1002
}
  0
LINE
  5
16F
330
1F
100
AcDbEntity
  8
HIDDEN
100
AcDbLine
 10
567.721
 20
-38.44800000000009
 30
0.0
 11
567.721
 21
-38.44800000000009
 31
0.0
1001
DBPROPERTIES
1002
{
1000
PbHidd
1002
}
  0
LINE
  5
170
330
1F
100
AcDbEntity
  8
HIDDEN
100
AcDbLine
 10
567.721
 20
-38.44800000000009
 30
0.0
 11
567.721
 21
-38.44800000000009
 31
0.0
1001
DBPROPERTIES
1002
{
1000
PbHidd
1002
}
  0
LINE
  5
171
330
1F
100
AcDbEntity
  8
HIDDEN
100
AcDbLine
 10
546.6999999999999
 20
-32.04000000000008
 30
0.0
 11
546.6999999999999
 21
-32.04000000000008
 31
0.0
1001
DBPROPERTIES
1002
{
1000
PbHidd
1002
}
  0
LINE
  5
172
330
1F
100
AcDbEntity
  8
HIDDEN
100
AcDbLine
 10
546.6999999999999
 20
-32.04000000000008
 30
0.0
 11
546.6999999999999
 21
-32.04000000000008
 31
0.0
1001
DBPROPERTIES
1002
{
1000
PbHidd
1002
}
  0
LINE
  5
173
330
1F
100
AcDbEntity
  8
HIDDEN
100
AcDbLine
 10
469.6999999999999
 20
-80.10000000000005
 30
0.0
 11
469.6999999999999
 21
-80.10000000000005
 31
0.0
1001
DBPROPERTIES
1002
{
1000
PbHidd
1002
}
  0
LINE
  5
174
330
1F
100
AcDbEntity
  8
HIDDEN
100
AcDbLine
 10
546.6999999999999
 20
32.03999999999992
 30
0.0
 11
546.6999999999999
 21
32.03999999999992
 31
0.0
1001
DBPROPERTIES
1002
{
1000
PbHidd
1002
}
  0
LINE
  5
175
330
1F
100
AcDbEntity
  8
HIDDEN
100
AcDbLine
 10
307.9999999999999
 20
-80.10000000000005
 30
0.0
 11
307.9999999999999
 21
-80.10000000000005
 31
0.0
1001
DBPROPERTIES
1002
{
1000
PbHidd
1002
}
  0
LINE
  5
176
330
1F
100
AcDbEntity
  8
HIDDEN
100
AcDbLine
 10
223.3
 20
-32.04
 30
0.0
 11
223.3
 21
-32.04
 31
0.0
1001
DBPROPERTIES
1002
{
1000
PbHidd
1002
}
  0
LINE
  5
177
330
1F
100
AcDbEntity
  8
THICK
100
AcDbLine
 10
223.3
 20
-0.0000000000000329
 30
0.0
 11
223.3
 21
32.04000000000003
 31
0.0
1001
DBPROPERTIES
1002
{
1000
PbThick
1002
}
  0
LINE
  5
178
330
1F
100
AcDbEntity
  8
HIDDEN
100
AcDbLine
 10
223.3
 20
32.04
 30
0.0
 11
223.3
 21
32.04
 31
0.0
1001
DBPROPERTIES
1002
{
1000
PbHidd
1002
}
  0
LINE
  5
179
330
1F
100
AcDbEntity
  8
HIDDEN
100
AcDbLine
 10
308.0
 20
80.10000000000001
 30
0.0
 11
308.0
 21
80.10000000000001
 31
0.0
1001
DBPROPERTIES
1002
{
1000
PbHidd
1002
}
  0
LINE
  5
17A
330
1F
100
AcDbEntity
  8
THICK
100
AcDbLine
 10
223.3000000000001
 20
32.04000000000008
 30
0.0
 11
308.0
 21
80.10000000000002
 31
0.0
1001
DBPROPERTIES
1002
{
1000
PbThick
1002
}
  0
LINE
  5
17B
330
1F
100
AcDbEntity
  8
HIDDEN
100
AcDbLine
 10
469.6999999999999
 20
80.10000000000001
 30
0.0
 11
469.6999999999999
 21
80.10000000000001
 31
0.0
1001
DBPROPERTIES
1002
{
1000
PbHidd
1002
}
  0
LINE
  5
17C
330
1F
100
AcDbEntity
  8
THICK
100
AcDbLine
 10
308.0
 20
80.10000000000001
 30
0.0
 11
469.6999999999999
 21
80.10000000000001
 31
0.0
1001
DBPROPERTIES
1002
{
1000
PbThick
1002
}
  0
LINE
  5
17D
330
1F
100
AcDbEntity
  8
HIDDEN
100
AcDbLine
 10
546.6999999999999
 20
32.03999999999992
 30
0.0
 11
546.6999999999999
 21
32.03999999999992
 31
0.0
1001
DBPROPERTIES
1002
{
1000
PbHidd
1002
}
  0
LINE
  5
17E
330
1F
100
AcDbEntity
  8
THICK
100
AcDbLine
 10
469.6999999999999
 20
80.10000000000002
 30
0.0
 11
546.7
 21
32.0399999999999
 31
0.0
1001
DBPROPERTIES
1002
{
1000
PbThick
1002
}
  0
LINE
  5
17F
330
1F
100
AcDbEntity
  8
THICK
100
AcDbLine
 10
546.6999999999999
 20
32.04000000000009
 30
0.0
 11
546.6999999999999
 21
0.0000000000000329
 31
0.0
1001
DBPROPERTIES
1002
{
1000
PbThick
1002
}
  0
LINE
  5
180
330
1F
100
AcDbEntity
  8
HIDDEN
100
AcDbLine
 10
567.721
 20
38.4479999999999
 30
0.0
 11
567.721
 21
38.4479999999999
 31
0.0
1001
DBPROPERTIES
1002
{
1000
PbHidd
1002
}
  0
LINE
  5
181
330
1F
100
AcDbEntity
  8
HIDDEN
100
AcDbLine
 10
480.711
 20
96.11999999999999
 30
0.0
 11
480.711
 21
96.11999999999999
 31
0.0
1001
DBPROPERTIES
1002
{
1000
PbHidd
1002
}
  0
LINE
  5
182
330
1F
100
AcDbEntity
  8
THICK
100
AcDbLine
 10
567.721
 20
38.44799999999987
 30
0.0
 11
480.7109999999998
 21
96.12000000000003
 31
0.0
1001
DBPROPERTIES
1002
{
1000
PbThick
1002
}
  0
LINE
  5
183
330
1F
100
AcDbEntity
  8
HIDDEN
100
AcDbLine
 10
567.721
 20
38.4479999999999
 30
0.0
 11
567.721
 21
38.4479999999999
 31
0.0
1001
DBPROPERTIES
1002
{
1000
PbHidd
1002
}
  0
LINE
  5
184
330
1F
100
AcDbEntity
  8
HIDDEN
100
AcDbLine
 10
480.711
 20
96.11999999999999
 30
0.0
 11
480.711
 21
96.11999999999999
 31
0.0
1001
DBPROPERTIES
1002
{
1000
PbHidd
1002
}
  0
LINE
  5
185
330
1F
100
AcDbEntity
  8
HIDDEN
100
AcDbLine
 10
567.721
 20
-38.44800000000009
 30
0.0
 11
567.721
 21
-38.44800000000009
 31
0.0
1001
DBPROPERTIES
1002
{
1000
PbHidd
1002
}
  0
LINE
  5
186
330
1F
100
AcDbEntity
  8
THICK
100
AcDbLine
 10
567.721
 20
-0.0000000000000329
 30
0.0
 11
567.721
 21
38.44799999999982
 31
0.0
1001
DBPROPERTIES
1002
{
1000
PbThick
1002
}
  0
LINE
  5
187
330
1F
100
AcDbEntity
  8
HIDDEN
100
AcDbLine
 10
567.721
 20
-38.44800000000009
 30
0.0
 11
567.721
 21
-38.44800000000009
 31
0.0
1001
DBPROPERTIES
1002
{
1000
PbHidd
1002
}
  0
LINE
  5
188
330
1F
100
AcDbEntity
  8
HIDDEN
100
AcDbLine
 10
297.99
 20
96.11999999999999
 30
0.0
 11
297.99
 21
96.11999999999999
 31
0.0
1001
DBPROPERTIES
1002
{
1000
PbHidd
1002
}
  0
LINE
  5
189
330
1F
100
AcDbEntity
  8
THICK
100
AcDbLine
 10
480.711
 20
96.11999999999999
 30
0.0
 11
297.99
 21
96.11999999999999
 31
0.0
1001
DBPROPERTIES
1002
{
1000
PbThick
1002
}
  0
LINE
  5
18A
330
1F
100
AcDbEntity
  8
HIDDEN
100
AcDbLine
 10
297.99
 20
96.11999999999999
 30
0.0
 11
297.99
 21
96.11999999999999
 31
0.0
1001
DBPROPERTIES
1002
{
1000
PbHidd
1002
}
  0
LINE
  5
18B
330
1F
100
AcDbEntity
  8
HIDDEN
100
AcDbLine
 10
480.7109999999999
 20
-96.12000000000003
 30
0.0
 11
480.7109999999999
 21
-96.12000000000003
 31
0.0
1001
DBPROPERTIES
1002
{
1000
PbHidd
1002
}
  0
LINE
  5
18C
330
1F
100
AcDbEntity
  8
HIDDEN
100
AcDbLine
 10
480.7109999999999
 20
-96.12000000000003
 30
0.0
 11
480.7109999999999
 21
-96.12000000000003
 31
0.0
1001
DBPROPERTIES
1002
{
1000
PbHidd
1002
}
  0
LINE
  5
18D
330
1F
100
AcDbEntity
  8
HIDDEN
100
AcDbLine
 10
480.7109999999999
 20
-96.12000000000003
 30
0.0
 11
480.7109999999999
 21
-96.12000000000003
 31
0.0
1001
DBPROPERTIES
1002
{
1000
PbHidd
1002
}
  0
LINE
  5
18E
330
1F
100
AcDbEntity
  8
HIDDEN
100
AcDbLine
 10
202.279
 20
38.44799999999999
 30
0.0
 11
202.279
 21
38.44799999999999
 31
0.0
1001
DBPROPERTIES
1002
{
1000
PbHidd
1002
}
  0
LINE
  5
18F
330
1F
100
AcDbEntity
  8
THICK
100
AcDbLine
 10
297.99
 20
96.12000000000003
 30
0.0
 11
202.2789999999999
 21
38.44799999999992
 31
0.0
1001
DBPROPERTIES
1002
{
1000
PbThick
1002
}
  0
LINE
  5
190
330
1F
100
AcDbEntity
  8
HIDDEN
100
AcDbLine
 10
202.279
 20
38.44799999999999
 30
0.0
 11
202.279
 21
38.44799999999999
 31
0.0
1001
DBPROPERTIES
1002
{
1000
PbHidd
1002
}
  0
LINE
  5
191
330
1F
100
AcDbEntity
  8
HIDDEN
100
AcDbLine
 10
297.9899999999999
 20
-96.12000000000003
 30
0.0
 11
297.9899999999999
 21
-96.12000000000003
 31
0.0
1001
DBPROPERTIES
1002
{
1000
PbHidd
1002
}
  0
LINE
  5
192
330
1F
100
AcDbEntity
  8
HIDDEN
100
AcDbLine
 10
297.9899999999999
 20
-96.12000000000003
 30
0.0
 11
297.9899999999999
 21
-96.12000000000003
 31
0.0
1001
DBPROPERTIES
1002
{
1000
PbHidd
1002
}
  0
LINE
  5
193
330
1F
100
AcDbEntity
  8
HIDDEN
100
AcDbLine
 10
297.9899999999999
 20
-96.12000000000003
 30
0.0
 11
297.9899999999999
 21
-96.12000000000003
 31
0.0
1001
DBPROPERTIES
1002
{
1000
PbHidd
1002
}
  0
LINE
  5
194
330
1F
100
AcDbEntity
  8
HIDDEN
100
AcDbLine
 10
202.279
 20
-38.44799999999999
 30
0.0
 11
202.279
 21
-38.44799999999999
 31
0.0
1001
DBPROPERTIES
1002
{
1000
PbHidd
1002
}
  0
LINE
  5
195
330
1F
100
AcDbEntity
  8
THICK
100
AcDbLine
 10
202.279
 20
38.44800000000011
 30
0.0
 11
202.279
 21
0.0000000000000329
 31
0.0
1001
DBPROPERTIES
1002
{
1000
PbThick
1002
}
  0
LINE
  5
196
330
1F
100
AcDbEntity
  8
HIDDEN
100
AcDbLine
 10
202.279
 20
-38.44799999999999
 30
0.0
 11
202.279
 21
-38.44799999999999
 31
0.0
1001
DBPROPERTIES
1002
{
1000
PbHidd
1002
}
  0
LINE
  5
197
330
1F
100
AcDbEntity
  8
HIDDEN
100
AcDbLine
 10
202.279
 20
38.44799999999999
 30
0.0
 11
202.279
 21
38.44799999999999
 31
0.0
1001
DBPROPERTIES
1002
{
1000
PbHidd
1002
}
  0
LINE
  5
198
330
1F
100
AcDbEntity
  8
HIDDEN
100
AcDbLine
 10
202.279
 20
-38.44799999999999
 30
0.0
 11
202.279
 21
-38.44799999999999
 31
0.0
1001
DBPROPERTIES
1002
{
1000
PbHidd
1002
}
  0
LINE
  5
199
330
1F
100
AcDbEntity
  8
HIDDEN
100
AcDbLine
 10
297.99
 20
96.11999999999999
 30
0.0
 11
297.99
 21
96.11999999999999
 31
0.0
1001
DBPROPERTIES
1002
{
1000
PbHidd
1002
}
  0
LINE
  5
19A
330
1F
100
AcDbEntity
  8
HIDDEN
100
AcDbLine
 10
207.9
 20
-259.3
 30
0.0
 11
207.9
 21
-41.83501206757833
 31
0.0
1001
DBPROPERTIES
1002
{
1000
PbHidd
1002
}
  0
LINE
  5
19B
330
1F
100
AcDbEntity
  8
HIDDEN
100
AcDbLine
 10
562.0999999999999
 20
-259.3
 30
0.0
 11
562.0999999999999
 21
-53.40008938908065
 31
0.0
1001
DBPROPERTIES
1002
{
1000
PbHidd
1002
}
  0
LINE
  5
19C
330
1F
100
AcDbEntity
  8
HIDDEN
100
AcDbLine
 10
562.0999999999999
 20
53.40008938908073
 30
0.0
 11
562.0999999999999
 21
259.3
 31
0.0
1001
DBPROPERTIES
1002
{
1000
PbHidd
1002
}
  0
LINE
  5
19D
330
1F
100
AcDbEntity
  8
HIDDEN
100
AcDbLine
 10
207.9
 20
41.8350120675784
 30
0.0
 11
207.9
 21
259.3
 31
0.0
1001
DBPROPERTIES
1002
{
1000
PbHidd
1002
}
  0
LINE
  5
19E
330
1F
100
AcDbEntity
  8
HIDDEN
100
AcDbLine
 10
646.8
 20
-200.0
 30
0.0
 11
646.8
 21
200.0
 31
0.0
1001
DBPROPERTIES
1002
{
1000
PbHidd
1002
}
  0
LINE
  5
19F
330
1F
100
AcDbEntity
  8
THICK
100
AcDbLine
 10
207.9
 20
-41.83501206757842
 30
0.0
 11
207.9
 21
-267.0
 31
0.0
1001
DBPROPERTIES
1002
{
1000
PbThick
1002
}
  0
LINE
  5
1A0
330
1F
100
AcDbEntity
  8
THICK
100
AcDbLine
 10
562.0999999999999
 20
-42.17371327433612
 30
0.0
 11
562.0999999999999
 21
-267.0
 31
0.0
1001
DBPROPERTIES
1002
{
1000
PbThick
1002
}
  0
LINE
  5
1A1
330
1F
100
AcDbEntity
  8
THICK
100
AcDbLine
 10
562.0999999999999
 20
267.0
 30
0.0
 11
562.0999999999999
 21
42.17371327433616
 31
0.0
1001
DBPROPERTIES
1002
{
1000
PbThick
1002
}
  0
LINE
  5
1A2
330
1F
100
AcDbEntity
  8
THICK
100
AcDbLine
 10
207.9
 20
267.0
 30
0.0
 11
207.9
 21
41.83501206757845
 31
0.0
1001
DBPROPERTIES
1002
{
1000
PbThick
1002
}
  0
LINE
  5
1A3
330
1F
100
AcDbEntity
  8
THICK
100
AcDbLine
 10
107.8000000000001
 20
207.7
 30
0.0
 11
107.8000000000001
 21
-207.7
 31
0.0
1001
DBPROPERTIES
1002
{
1000
PbThick
1002
}
  0
LINE
  5
1A4
330
1F
100
AcDbEntity
  8
HIDDEN
100
AcDbLine
 10
107.8000000000001
 20
-200.0
 30
0.0
 11
107.8000000000001
 21
200.0
 31
0.0
1001
DBPROPERTIES
1002
{
1000
PbHidd
1002
}
  0
LINE
  5
1A5
330
1F
100
AcDbEntity
  8
THICK
100
AcDbLine
 10
0.0
 20
242.0
 30
0.0
 11
0.0
 21
-242.0
 31
0.0
1001
DBPROPERTIES
1002
{
1000
PbThick
1002
}
  0
LINE
  5
1A6
330
1F
100
AcDbEntity
  8
THICK
100
AcDbLine
 10
7.700000000000045
 20
242.0
 30
0.0
 11
7.700000000000045
 21
-242.0
 31
0.0
1001
DBPROPERTIES
1002
{
1000
PbThick
1002
}
  0
LINE
  5
1A7
330
1F
100
AcDbEntity
  8
THICK
100
AcDbLine
 10
646.8
 20
207.7000000000003
 30
0.0
 11
646.8
 21
-207.7000000000003
 31
0.0
1001
DBPROPERTIES
1002
{
1000
PbThick
1002
}
  0
LINE
  5
1A8
330
1F
100
AcDbEntity
  8
THICK
100
AcDbLine
 10
762.3
 20
242.0
 30
0.0
 11
762.3
 21
-242.0
 31
0.0
1001
DBPROPERTIES
1002
{
1000
PbThick
1002
}
  0
LINE
  5
1A9
330
1F
100
AcDbEntity
  8
HIDDEN
100
AcDbLine
 10
7.699999809265137
 20
220.0
 30
0.0
 11
0.0000000000000133
 21
220.0
 31
0.0
1001
DBPROPERTIES
1002
{
1000
PbHidd
1002
}
  0
LINE
  5
1AA
330
1F
100
AcDbEntity
  8
HIDDEN
100
AcDbLine
 10
7.699999809265137
 20
154.0990295410156
 30
0.0
 11
0.0000000000000133
 21
154.0990295410156
 31
0.0
1001
DBPROPERTIES
1002
{
1000
PbHidd
1002
}
  0
LINE
  5
1AB
330
1F
100
AcDbEntity
  8
HIDDEN
100
AcDbLine
 10
7.699999809265137
 20
-154.0990257669732
 30
0.0
 11
0.0000000000000133
 21
-154.0990257669732
 31
0.0
1001
DBPROPERTIES
1002
{
1000
PbHidd
1002
}
  0
LINE
  5
1AC
330
1F
100
AcDbEntity
  8
HIDDEN
100
AcDbLine
 10
7.699999809265137
 20
-220.0
 30
0.0
 11
0.0000000000000138
 21
-220.0
 31
0.0
1001
DBPROPERTIES
1002
{
1000
PbHidd
1002
}
  0
LINE
  5
1AD
330
1F
100
AcDbEntity
  8
HIDDEN
100
AcDbLine
 10
7.699999809265137
 20
-154.0990257669732
 30
0.0
 11
0.0000000000000133
 21
-154.0990257669732
 31
0.0
1001
DBPROPERTIES
1002
{
1000
PbHidd
1002
}
  0
LINE
  5
1AE
330
1F
100
AcDbEntity
  8
HIDDEN
100
AcDbLine
 10
7.699999809265137
 20
154.0990295410156
 30
0.0
 11
0.0000000000000133
 21
154.0990295410156
 31
0.0
1001
DBPROPERTIES
1002
{
1000
PbHidd
1002
}
  0
LINE
  5
1AF
330
1F
100
AcDbEntity
  8
HIDDEN
100
AcDbLine
 10
770.0
 20
220.0
 30
0.0
 11
762.2999877929688
 21
220.0
 31
0.0
1001
DBPROPERTIES
1002
{
1000
PbHidd
1002
}
  0
LINE
  5
1B0
330
1F
100
AcDbEntity
  8
HIDDEN
100
AcDbLine
 10
770.0
 20
154.0990295410156
 30
0.0
 11
762.2999877929688
 21
154.0990295410156
 31
0.0
1001
DBPROPERTIES
1002
{
1000
PbHidd
1002
}
  0
LINE
  5
1B1
330
1F
100
AcDbEntity
  8
HIDDEN
100
AcDbLine
 10
770.0
 20
-154.0990257669732
 30
0.0
 11
762.2999877929688
 21
-154.0990257669732
 31
0.0
1001
DBPROPERTIES
1002
{
1000
PbHidd
1002
}
  0
LINE
  5
1B2
330
1F
100
AcDbEntity
  8
HIDDEN
100
AcDbLine
 10
770.0
 20
-220.0
 30
0.0
 11
762.2999877929688
 21
-220.0
 31
0.0
1001
DBPROPERTIES
1002
{
1000
PbHidd
1002
}
  0
LINE
  5
1B3
330
1F
100
AcDbEntity
  8
HIDDEN
100
AcDbLine
 10
770.0
 20
-154.0990257669732
 30
0.0
 11
762.2999877929688
 21
-154.0990257669732
 31
0.0
1001
DBPROPERTIES
1002
{
1000
PbHidd
1002
}
  0
LINE
  5
1B4
330
1F
100
AcDbEntity
  8
HIDDEN
100
AcDbLine
 10
770.0
 20
154.0990295410156
 30
0.0
 11
762.2999877929688
 21
154.0990295410156
 31
0.0
1001
DBPROPERTIES
1002
{
1000
PbHidd
1002
}
  0
ARC
  5
1B5
330
1F
100
AcDbEntity
  8
THICK
100
AcDbCircle
 10
371.7100000000001
 20
-35.71
 30
0.0
 40
21.36
100
AcDbArc
 50
180.0000198478428
 51
269.9999614281888
1001
DBPROPERTIES
1002
{
1000
PbThick
1002
}
  0
ARC
  5
1B6
330
1F
100
AcDbEntity
  8
HIDDEN
100
AcDbCircle
 10
582.22
 20
72.09
 30
0.0
 40
10.68
100
AcDbArc
 50
269.9998468366298
 51
0.0
1001
DBPROPERTIES
1002
{
1000
PbHidd
1002
}
  0
LINE
  5
1B7
330
1F
100
AcDbEntity
  8
HIDDEN
100
AcDbLine
 10
639.0999755859375
 20
-53.40000152587891
 30
0.0
 11
608.2999877929688
 21
-53.40000152587891
 31
0.0
1001
DBPROPERTIES
1002
{
1000
PbHidd
1002
}
  0
ARC
  5
1B8
330
1F
100
AcDbEntity
  8
HIDDEN
100
AcDbCircle
 10
570.11
 20
-53.40000000000001
 30
0.0
 40
8.01
100
AcDbArc
 50
180.0000374479367
 51
269.9999041324093
1001
DBPROPERTIES
1002
{
1000
PbHidd
1002
}
  0
ARC
  5
1B9
330
1F
100
AcDbEntity
  8
HIDDEN
100
AcDbCircle
 10
647.8
 20
0.0
 30
0.0
 40
106.8
100
AcDbArc
 50
326.6330006596434
 51
0.0
1001
DBPROPERTIES
1002
{
1000
PbHidd
1002
}
  0
LINE
  5
1BA
330
1F
100
AcDbEntity
  8
HIDDEN
100
AcDbLine
 10
686.7142234683037
 20
196.0
 30
0.0
 11
683.8857948422432
 21
196.0
 31
0.0
1001
DBPROPERTIES
1002
{
1000
PbHidd
1002
}
  0
ARC
  5
1BB
330
1F
100
AcDbEntity
  8
HIDDEN
100
AcDbCircle
 10
647.8
 20
0.0
 30
0.0
 40
106.8
100
AcDbArc
 50
0.0
 51
33.36699934035667
1001
DBPROPERTIES
1002
{
1000
PbHidd
1002
}
  0
ARC
  5
1BC
330
1F
100
AcDbEntity
  8
HIDDEN
100
AcDbCircle
 10
570.11
 20
53.40000000000001
 30
0.0
 40
8.01
100
AcDbArc
 50
90.00009586759069
 51
179.9999625520633
1001
DBPROPERTIES
1002
{
1000
PbHidd
1002
}
  0
LINE
  5
1BD
330
1F
100
AcDbEntity
  8
HIDDEN
100
AcDbLine
 10
639.0999755859375
 20
53.40000000000001
 30
0.0
 11
608.2999877929688
 21
53.40000000000001
 31
0.0
1001
DBPROPERTIES
1002
{
1000
PbHidd
1002
}
  0
ARC
  5
1BE
330
1F
100
AcDbEntity
  8
HIDDEN
100
AcDbCircle
 10
582.22
 20
-72.09
 30
0.0
 40
10.68
100
AcDbArc
 50
0.0
 51
90.00015316337019
1001
DBPROPERTIES
1002
{
1000
PbHidd
1002
}
  0
ARC
  5
1BF
330
1F
100
AcDbEntity
  8
THICK
100
AcDbCircle
 10
371.7100000000001
 20
35.71
 30
0.0
 40
21.36
100
AcDbArc
 50
90.00003857181116
 51
179.9999801521572
1001
DBPROPERTIES
1002
{
1000
PbThick
1002
}
  0
LINE
  5
1C0
330
1F
100
AcDbEntity
  8
HIDDEN
100
AcDbLine
 10
770.0
 20
164.0990257669731
 30
0.0
 11
762.2999877929688
 21
164.0990257669731
 31
0.0
1001
DBPROPERTIES
1002
{
1000
PbHidd
1002
}
  0
LINE
  5
1C1
330
1F
100
AcDbEntity
  8
HIDDEN
100
AcDbLine
 10
770.0
 20
-164.0990295410156
 30
0.0
 11
762.2999877929688
 21
-164.0990295410156
 31
0.0
1001
DBPROPERTIES
1002
{
1000
PbHidd
1002
}
  0
LINE
  5
1C2
330
1F
100
AcDbEntity
  8
HIDDEN
100
AcDbLine
 10
770.0
 20
-230.0
 30
0.0
 11
762.2999877929688
 21
-230.0
 31
0.0
1001
DBPROPERTIES
1002
{
1000
PbHidd
1002
}
  0
LINE
  5
1C3
330
1F
100
AcDbEntity
  8
HIDDEN
100
AcDbLine
 10
770.0
 20
-164.0990295410156
 30
0.0
 11
762.2999877929688
 21
-164.0990295410156
 31
0.0
1001
DBPROPERTIES
1002
{
1000
PbHidd
1002
}
  0
LINE
  5
1C4
330
1F
100
AcDbEntity
  8
HIDDEN
100
AcDbLine
 10
770.0
 20
164.0990257669732
 30
0.0
 11
762.2999877929688
 21
164.0990257669732
 31
0.0
1001
DBPROPERTIES
1002
{
1000
PbHidd
1002
}
  0
LINE
  5
1C5
330
1F
100
AcDbEntity
  8
HIDDEN
100
AcDbLine
 10
770.0
 20
230.0
 30
0.0
 11
762.2999877929688
 21
230.0
 31
0.0
1001
DBPROPERTIES
1002
{
1000
PbHidd
1002
}
  0
LINE
  5
1C6
330
1F
100
AcDbEntity
  8
HIDDEN
100
AcDbLine
 10
7.699999809265137
 20
164.0990257669731
 30
0.0
 11
0.0000000000000133
 21
164.0990257669731
 31
0.0
1001
DBPROPERTIES
1002
{
1000
PbHidd
1002
}
  0
LINE
  5
1C7
330
1F
100
AcDbEntity
  8
HIDDEN
100
AcDbLine
 10
7.699999809265137
 20
-164.0990295410156
 30
0.0
 11
0.0000000000000133
 21
-164.0990295410156
 31
0.0
1001
DBPROPERTIES
1002
{
1000
PbHidd
1002
}
  0
LINE
  5
1C8
330
1F
100
AcDbEntity
  8
HIDDEN
100
AcDbLine
 10
7.699999809265137
 20
-230.0
 30
0.0
 11
0.0000000000000133
 21
-230.0
 31
0.0
1001
DBPROPERTIES
1002
{
1000
PbHidd
1002
}
  0
LINE
  5
1C9
330
1F
100
AcDbEntity
  8
HIDDEN
100
AcDbLine
 10
7.699999809265137
 20
-164.0990295410156
 30
0.0
 11
0.0000000000000133
 21
-164.0990295410156
 31
0.0
1001
DBPROPERTIES
1002
{
1000
PbHidd
1002
}
  0
LINE
  5
1CA
330
1F
100
AcDbEntity
  8
HIDDEN
100
AcDbLine
 10
7.699999809265137
 20
164.0990257669732
 30
0.0
 11
0.0000000000000133
 21
164.0990257669732
 31
0.0
1001
DBPROPERTIES
1002
{
1000
PbHidd
1002
}
  0
LINE
  5
1CB
330
1F
100
AcDbEntity
  8
HIDDEN
100
AcDbLine
 10
7.699999809265137
 20
230.0
 30
0.0
 11
0.0000000000000138
 21
230.0
 31
0.0
1001
DBPROPERTIES
1002
{
1000
PbHidd
1002
}
  0
ENDSEC
  0
SECTION
  2
OBJECTS
  0
DICTIONARY
  5
C
330
0
100
AcDbDictionary
  3
ACAD_GROUP
350
D
  3
ACAD_LAYOUT
350
1A
  3
ACAD_MATERIAL
350
43
  3
ACAD_MLEADERSTYLE
350
6B
  3
ACAD_MLINESTYLE
350
17
  3
ACAD_PLOTSETTINGS
350
19
  3
ACAD_SCALELIST
350
47
  3
ACAD_VISUALSTYLE
350
2A
  3
ACDBVARIABLEDICTIONARY
350
1CC
1001
ACAD
1000
TREAT_AS_HARD
1070
     0
  0
DICTIONARY
  5
D
102
{ACAD_REACTORS
330
C
102
}
330
C
100
AcDbDictionary
1001
ACAD
1000
TREAT_AS_HARD
1070
     0
  0
DICTIONARY
  5
1A
102
{ACAD_REACTORS
330
C
102
}
330
C
100
AcDbDictionary
1001
ACAD
1000
TREAT_AS_HARD
1070
     0
  0
DICTIONARY
  5
43
102
{ACAD_REACTORS
330
C
102
}
330
C
100
AcDbDictionary
  3
BYBLOCK
350
45
  3
BYLAYER
350
44
  3
GLOBAL
350
46
1001
ACAD
1000
TREAT_AS_HARD
1070
     0
  0
DICTIONARY
  5
6B
102
{ACAD_REACTORS
330
C
102
}
330
C
100
AcDbDictionary
  3
STANDARD
350
6C
1001
ACAD
1000
TREAT_AS_HARD
1070
     0
  0
DICTIONARY
  5
17
102
{ACAD_REACTORS
330
C
102
}
330
C
100
AcDbDictionary
  3
STANDARD
350
18
1001
ACAD
1000
TREAT_AS_HARD
1070
     0
  0
DICTIONARY
  5
19
102
{ACAD_REACTORS
330
C
102
}
330
C
100
AcDbDictionary
1001
ACAD
1000
TREAT_AS_HARD
1070
     0
  0
DICTIONARY
  5
47
102
{ACAD_REACTORS
330
C
102
}
330
C
100
AcDbDictionary
  3
A0
350
48
  3
A1
350
49
  3
A2
350
4A
  3
A3
350
4B
  3
A4
350
4C
  3
A5
350
4D
  3
A6
350
4E
  3
A7
350
4F
  3
A8
350
50
  3
A9
350
51
  3
B0
350
52
  3
B1
350
53
  3
B2
350
54
  3
B3
350
55
  3
B4
350
56
  3
B5
350
57
  3
B6
350
58
  3
B7
350
59
  3
B8
350
5A
  3
B9
350
5B
  3
C0
350
5C
  3
C1
350
5D
  3
C2
350
5E
  3
C3
350
5F
  3
C4
350
60
  3
C5
350
61
  3
C6
350
62
  3
C7
350
63
  3
C8
350
64
  3
C9
350
65
  3
D0
350
66
  3
D1
350
67
  3
D2
350
68
1001
ACAD
1000
TREAT_AS_HARD
1070
     0
  0
DICTIONARY
  5
2A
102
{ACAD_REACTORS
330
C
102
}
330
C
100
AcDbDictionary
  3
2DWIREFRAME
350
2F
  3
BASIC
350
32
  3
BRIGHTEN
350
36
  3
COLORCHANGE
350
3A
  3
CONCEPTUAL
350
34
  3
DIM
350
35
  3
EDGECOLOROFF
350
3D
  3
FACEPATTERN
350
39
  3
FLAT
350
2B
  3
FLATWITHEDGES
350
2C
  3
GOURAUD
350
2D
  3
GOURAUDWITHEDGES
350
2E
  3
HIDDEN
350
31
  3
JITTEROFF
350
3B
  3
LINEPATTERN
350
38
  3
OVERHANGOFF
350
3C
  3
REALISTIC
350
33
  3
SHADED
350
42
  3
SHADED_WITH_EDGES
350
41
  3
SHADES_OF_GRAY
350
3E
  3
SKETCHY
350
3F
  3
THICKEN
350
37
  3
WIREFRAME
350
30
  3
X-RAY
350
40
1001
ACAD
1000
TREAT_AS_HARD
1070
     0
  0
DICTIONARY
  5
1CC
102
{ACAD_REACTORS
330
C
102
}
330
C
100
AcDbDictionary
  3
CANNOSCALE
350
1D7
  3
CENTEREXE
350
1D3
  3
CENTERLTYPEFILE
350
1D4
  3
CMLEADERSTYLE
350
1CE
  3
CTABLESTYLE
350
1CD
  3
DIMASSOC
350
1D5
  3
HIDETEXT
350
1D6
  3
MSLTSCALE
350
1D8
  3
PSOLHEIGHT
350
1D0
  3
PSOLWIDTH
350
1CF
1001
ACAD
1000
TREAT_AS_HARD
1070
     0
  0
MATERIAL
  5
45
102
{ACAD_REACTORS
330
43
102
}
102
{ACAD_XDICTIONARY
360
1DB
102
}
330
43
100
AcDbMaterial
  1
BYBLOCK
  0
MATERIAL
  5
44
102
{ACAD_REACTORS
330
43
102
}
102
{ACAD_XDICTIONARY
360
1D9
102
}
330
43
100
AcDbMaterial
  1
BYLAYER
  0
MATERIAL
  5
46
102
{ACAD_REACTORS
330
43
102
}
102
{ACAD_XDICTIONARY
360
1DD
102
}
330
43
100
AcDbMaterial
  1
GLOBAL
  0
ACAD_PROXY_OBJECT
  5
6C
102
{ACAD_REACTORS
330
6B
102
}
330
6B
100
AcDbZombieObject
 90
      499
 91
      505
 93
      610
310
40901902A4063FBFFFFFE0000000000000020400000000000020404214DD185B99185C990000000000000104090141901A00000000000004100000000000000041025764000000000000039000
340
14
340
0
340
11
340
0
 94
        0
1001
ACAD_MLEADERVER
1070
     2
  0
MLINESTYLE
  5
18
102
{ACAD_REACTORS
330
17
102
}
330
17
100
AcDbMlineStyle
  2
Standard
 70
     0
  3

 62
   256
 51
90.0
 52
90.0
 71
     2
 49
0.5
 62
   256
  6
BYLAYER
 49
-0.5
 62
   256
  6
BYLAYER
  0
ACAD_PROXY_OBJECT
  5
48
102
{ACAD_REACTORS
330
47
102
}
330
47
100
AcDbZombieObject
 90
      499
 91
      503
 93
       41
310
903313A31580
  0
ACAD_PROXY_OBJECT
  5
49
102
{ACAD_REACTORS
330
47
102
}
330
47
100
AcDbZombieObject
 90
      499
 91
      503
 93
      105
310
903313A324000000000000004000
  0
ACAD_PROXY_OBJECT
  5
4A
102
{ACAD_REACTORS
330
47
102
}
330
47
100
AcDbZombieObject
 90
      499
 91
      503
 93
      105
310
903313A344000000000000104000
  0
ACAD_PROXY_OBJECT
  5
4B
102
{ACAD_REACTORS
330
47
102
}
330
47
100
AcDbZombieObject
 90
      499
 91
      503
 93
      105
310
903313A354000000000000144000
  0
ACAD_PROXY_OBJECT
  5
4C
102
{ACAD_REACTORS
330
47
102
}
330
47
100
AcDbZombieObject
 90
      499
 91
      503
 93
      105
310
903313A384000000000000204000
  0
ACAD_PROXY_OBJECT
  5
4D
102
{ACAD_REACTORS
330
47
102
}
330
47
100
AcDbZombieObject
 90
      499
 91
      503
 93
      113
310
904313A31304000000000000244000
  0
ACAD_PROXY_OBJECT
  5
4E
102
{ACAD_REACTORS
330
47
102
}
330
47
100
AcDbZombieObject
 90
      499
 91
      503
 93
      113
310
904313A31364000000000000304000
  0
ACAD_PROXY_OBJECT
  5
4F
102
{ACAD_REACTORS
330
47
102
}
330
47
100
AcDbZombieObject
 90
      499
 91
      503
 93
      113
310
904313A32304000000000000344000
  0
ACAD_PROXY_OBJECT
  5
50
102
{ACAD_REACTORS
330
47
102
}
330
47
100
AcDbZombieObject
 90
      499
 91
      503
 93
      113
310
904313A333040000000000003E4000
  0
ACAD_PROXY_OBJECT
  5
51
102
{ACAD_REACTORS
330
47
102
}
330
47
100
AcDbZombieObject
 90
      499
 91
      503
 93
      113
310
904313A34304000000000000444000
  0
ACAD_PROXY_OBJECT
  5
52
102
{ACAD_REACTORS
330
47
102
}
330
47
100
AcDbZombieObject
 90
      499
 91
      503
 93
      113
310
904313A35304000000000000494000
  0
ACAD_PROXY_OBJECT
  5
53
102
{ACAD_REACTORS
330
47
102
}
330
47
100
AcDbZombieObject
 90
      499
 91
      503
 93
      121
310
905313A3130304000000000000594000
  0
ACAD_PROXY_OBJECT
  5
54
102
{ACAD_REACTORS
330
47
102
}
330
47
100
AcDbZombieObject
 90
      499
 91
      503
 93
      105
310
903323A310000000000000010100
  0
ACAD_PROXY_OBJECT
  5
55
102
{ACAD_REACTORS
330
47
102
}
330
47
100
AcDbZombieObject
 90
      499
 91
      503
 93
      105
310
903343A310000000000000410100
  0
ACAD_PROXY_OBJECT
  5
56
102
{ACAD_REACTORS
330
47
102
}
330
47
100
AcDbZombieObject
 90
      499
 91
      503
 93
      105
310
903383A310000000000000810100
  0
ACAD_PROXY_OBJECT
  5
57
102
{ACAD_REACTORS
330
47
102
}
330
47
100
AcDbZombieObject
 90
      499
 91
      503
 93
      113
310
90431303A310000000000000910100
  0
ACAD_PROXY_OBJECT
  5
58
102
{ACAD_REACTORS
330
47
102
}
330
47
100
AcDbZombieObject
 90
      499
 91
      503
 93
      121
310
9053130303A310000000000001650100
  0
ACAD_PROXY_OBJECT
  5
59
102
{ACAD_REACTORS
330
47
102
}
330
47
100
AcDbZombieObject
 90
      499
 91
      503
 93
      257
310
90E312F31323822203D2031272D3022000000000000200FC000000000000284000
  0
ACAD_PROXY_OBJECT
  5
5A
102
{ACAD_REACTORS
330
47
102
}
330
47
100
AcDbZombieObject
 90
      499
 91
      503
 93
      249
310
90D312F363422203D2031272D3022000000000000240FC000000000000284000
  0
ACAD_PROXY_OBJECT
  5
5B
102
{ACAD_REACTORS
330
47
102
}
330
47
100
AcDbZombieObject
 90
      499
 91
      503
 93
      249
310
90D312F333222203D2031272D3022000000000000280FC000000000000284000
  0
ACAD_PROXY_OBJECT
  5
5C
102
{ACAD_REACTORS
330
47
102
}
330
47
100
AcDbZombieObject
 90
      499
 91
      503
 93
      249
310
90D312F313622203D2031272D30220000000000002C0FC000000000000284000
  0
ACAD_PROXY_OBJECT
  5
5D
102
{ACAD_REACTORS
330
47
102
}
330
47
100
AcDbZombieObject
 90
      499
 91
      503
 93
      249
310
90D332F333222203D2031272D30220000000000002E0FC000000000000284000
  0
ACAD_PROXY_OBJECT
  5
5E
102
{ACAD_REACTORS
330
47
102
}
330
47
100
AcDbZombieObject
 90
      499
 91
      503
 93
      241
310
90C312F3822203D2031272D3022000000000000300FC000000000000284000
  0
ACAD_PROXY_OBJECT
  5
5F
102
{ACAD_REACTORS
330
47
102
}
330
47
100
AcDbZombieObject
 90
      499
 91
      503
 93
      249
310
90D332F313622203D2031272D3022000000000000320FC000000000000284000
  0
ACAD_PROXY_OBJECT
  5
60
102
{ACAD_REACTORS
330
47
102
}
330
47
100
AcDbZombieObject
 90
      499
 91
      503
 93
      241
310
90C312F3422203D2031272D3022000000000000340FC000000000000284000
  0
ACAD_PROXY_OBJECT
  5
61
102
{ACAD_REACTORS
330
47
102
}
330
47
100
AcDbZombieObject
 90
      499
 91
      503
 93
      241
310
90C332F3822203D2031272D3022000000000000360FC000000000000284000
  0
ACAD_PROXY_OBJECT
  5
62
102
{ACAD_REACTORS
330
47
102
}
330
47
100
AcDbZombieObject
 90
      499
 91
      503
 93
      241
310
90C312F3222203D2031272D3022000000000000380FC000000000000284000
  0
ACAD_PROXY_OBJECT
  5
63
102
{ACAD_REACTORS
330
47
102
}
330
47
100
AcDbZombieObject
 90
      499
 91
      503
 93
      241
310
90C332F3422203D2031272D30220000000000003A0FC000000000000284000
  0
ACAD_PROXY_OBJECT
  5
64
102
{ACAD_REACTORS
330
47
102
}
330
47
100
AcDbZombieObject
 90
      499
 91
      503
 93
      161
310
90A3122203D2031272D30224000000000000284000
  0
ACAD_PROXY_OBJECT
  5
65
102
{ACAD_REACTORS
330
47
102
}
330
47
100
AcDbZombieObject
 90
      499
 91
      503
 93
      257
310
90E312D312F3222203D2031272D30220000000000003E0FC000000000000284000
  0
ACAD_PROXY_OBJECT
  5
66
102
{ACAD_REACTORS
330
47
102
}
330
47
100
AcDbZombieObject
 90
      499
 91
      503
 93
      225
310
90A3322203D2031272D302200000000000002100000000000000284000
  0
ACAD_PROXY_OBJECT
  5
67
102
{ACAD_REACTORS
330
47
102
}
330
47
100
AcDbZombieObject
 90
      499
 91
      503
 93
      225
310
90A3622203D2031272D302200000000000006100000000000000284000
  0
ACAD_PROXY_OBJECT
  5
68
102
{ACAD_REACTORS
330
47
102
}
330
47
100
AcDbZombieObject
 90
      499
 91
      503
 93
      249
310
90D31272D3022203D2031272D30220000000000000A100000000000000284000
  0
ACAD_PROXY_OBJECT
  5
2F
102
{ACAD_REACTORS
330
2A
102
}
330
2A
100
AcDbZombieObject
 90
      499
 91
      501
 93
      436
310
42CC9915DA5C99599C985B595049028333333333333E33F0000000000000F90107901411070040501600405405064090741402480A0340
1001
ACAD
1000
AcDbSavedByObjectVersion
1070
     0
  0
ACAD_PROXY_OBJECT
  5
32
102
{ACAD_REACTORS
330
2A
102
}
330
2A
100
AcDbZombieObject
 90
      499
 91
      501
 93
      388
310
4150985CDA58D07406404333333333333E33F0000000000000F90107A41107004050150841D405064090741402480A0350
1001
ACAD
1000
AcDbSavedByObjectVersion
1070
     0
  0
ACAD_PROXY_OBJECT
  5
36
102
{ACAD_REACTORS
330
2A
102
}
330
2A
100
AcDbZombieObject
 90
      499
 91
      501
 93
      428
310
42109C9A59DA1D195B90C409028333333333333E33F0000000000000F9010790141107004050150841D405064090741402480A029950
1001
ACAD
1000
AcDbSavedByObjectVersion
1070
     0
  0
ACAD_PROXY_OBJECT
  5
3A
102
{ACAD_REACTORS
330
2A
102
}
330
2A
100
AcDbZombieObject
 90
      499
 91
      501
 93
      452
310
42D0DBDB1BDC90DA185B99D95104090240C333333333333E33F0000000000000F90108901411070040501508421405064090741402480A0350
1001
ACAD
1000
AcDbSavedByObjectVersion
1070
     0
  0
ACAD_PROXY_OBJECT
  5
34
102
{ACAD_REACTORS
330
2A
102
}
330
2A
100
AcDbZombieObject
 90
      499
 91
      501
 93
      500
310
4290DBDB98D95C1D1D585B10940D028333333333333E33F0000000000000F90107902409070040501000000000018199010841D405064090740C02480A0340
1001
ACAD
1000
AcDbSavedByObjectVersion
1070
     0
  0
ACAD_PROXY_OBJECT
  5
35
102
{ACAD_REACTORS
330
2A
102
}
330
2A
100
AcDbZombieObject
 90
      499
 91
      501
 93
      412
310
40D11A5B50B409028333333333333E33F0000000000000F9010790141107004050150841D405064090741402480A02677FFFFFD0
1001
ACAD
1000
AcDbSavedByObjectVersion
1070
     0
  0
ACAD_PROXY_OBJECT
  5
3D
102
{ACAD_REACTORS
330
2A
102
}
330
2A
100
AcDbZombieObject
 90
      499
 91
      501
 93
      452
310
43115919D950DBDB1BDC93D999916409028333333333333E33F0000000000000F9010790141107004050150841D405064090741402480A0350
1001
ACAD
1000
AcDbSavedByObjectVersion
1070
     0
  0
ACAD_PROXY_OBJECT
  5
39
102
{ACAD_REACTORS
330
2A
102
}
330
2A
100
AcDbZombieObject
 90
      499
 91
      501
 93
      444
310
42D19858D95C185D1D195C9B90F409028333333333333E33F0000000000000F9010790141107004050150841D405064090741402480A0350
1001
ACAD
1000
AcDbSavedByObjectVersion
1070
     0
  0
ACAD_PROXY_OBJECT
  5
2B
102
{ACAD_REACTORS
330
2A
102
}
330
2A
100
AcDbZombieObject
 90
      499
 91
      501
 93
      380
310
41119B185D240901404333333333333E33F0000000000000F9010740A907004050150841D405064090741402480A1B50
1001
ACAD
1000
AcDbSavedByObjectVersion
1070
     0
  0
ACAD_PROXY_OBJECT
  5
2C
102
{ACAD_REACTORS
330
2A
102
}
330
2A
100
AcDbZombieObject
 90
      499
 91
      501
 93
      468
310
43519B185D15DA5D1A115919D95CD0140901404333333333333E33F0000000000000F90107409019070040501600405405064090741402480A1B50
1001
ACAD
1000
AcDbSavedByObjectVersion
1070
     0
  0
ACAD_PROXY_OBJECT
  5
2D
102
{ACAD_REACTORS
330
2A
102
}
330
2A
100
AcDbZombieObject
 90
      499
 91
      501
 93
      404
310
41D1DBDD5C985D5910240902404333333333333E33F0000000000000F9010740A9070040501641D405064090741402480A1B50
1001
ACAD
1000
AcDbSavedByObjectVersion
1070
     0
  0
ACAD_PROXY_OBJECT
  5
2E
102
{ACAD_REACTORS
330
2A
102
}
330
2A
100
AcDbZombieObject
 90
      499
 91
      501
 93
      492
310
4411DBDD5C985D5915DA5D1A115919D95CD0340902404333333333333E33F0000000000000F90107409019070040501600405405064090741402480A1B50
1001
ACAD
1000
AcDbSavedByObjectVersion
1070
     0
  0
ACAD_PROXY_OBJECT
  5
31
102
{ACAD_REACTORS
330
2A
102
}
330
2A
100
AcDbZombieObject
 90
      499
 91
      501
 93
      476
310
41921A5919195B90640502408333333333333E33F0000000000000F901079024090700405020000000000001110200405405064090740C02480A0340
1001
ACAD
1000
AcDbSavedByObjectVersion
1070
     0
  0
ACAD_PROXY_OBJECT
  5
3B
102
{ACAD_REACTORS
330
2A
102
}
330
2A
100
AcDbZombieObject
 90
      499
 91
      501
 93
      428
310
42529A5D1D195C93D999914409028333333333333E33F0000000000000F9010790141107004050150A41D405064090741402480A0350
1001
ACAD
1000
AcDbSavedByObjectVersion
1070
     0
  0
ACAD_PROXY_OBJECT
  5
38
102
{ACAD_REACTORS
330
2A
102
}
330
2A
100
AcDbZombieObject
 90
      499
 91
      501
 93
      444
310
42D31A5B995C185D1D195C9B90E409028333333333333E33F0000000000000F9010790141107004050750841D405064090741402483A0350
1001
ACAD
1000
AcDbSavedByObjectVersion
1070
     0
  0
ACAD_PROXY_OBJECT
  5
3C
102
{ACAD_REACTORS
330
2A
102
}
330
2A
100
AcDbZombieObject
 90
      499
 91
      501
 93
      444
310
42D3DD995C9A185B99D3D999915409028333333333333E33F0000000000000F9010790141107004050150941D405064090741402480A0350
1001
ACAD
1000
AcDbSavedByObjectVersion
1070
     0
  0
ACAD_PROXY_OBJECT
  5
33
102
{ACAD_REACTORS
330
2A
102
}
330
2A
100
AcDbZombieObject
 90
      499
 91
      501
 93
      428
310
425499585B1A5CDD1A58D08409038333333333333E33F0000000000000F9010740A907004050150800405405064090740C02480A1B40
1001
ACAD
1000
AcDbSavedByObjectVersion
1070
     0
  0
ACAD_PROXY_OBJECT
  5
42
102
{ACAD_REACTORS
330
2A
102
}
330
2A
100
AcDbZombieObject
 90
      499
 91
      501
 93
      420
310
4194DA1859195911B40902404333333333333E33F0000000000000F9010740A41107004050150800405405064090840C02480A0B40
1001
ACAD
1000
AcDbSavedByObjectVersion
1070
     0
  0
ACAD_PROXY_OBJECT
  5
41
102
{ACAD_REACTORS
330
2A
102
}
330
2A
100
AcDbZombieObject
 90
      499
 91
      501
 93
      516
310
4454DA18591959081DDA5D1A08195919D95CD1A40902404333333333333E33F0000000000000F901074090142907004050250800405405064090740C02480A0B40
1001
ACAD
1000
AcDbSavedByObjectVersion
1070
     0
  0
ACAD_PROXY_OBJECT
  5
3E
102
{ACAD_REACTORS
330
2A
102
}
330
2A
100
AcDbZombieObject
 90
      499
 91
      501
 93
      532
310
4394DA1859195CC81BD98811DC985E5174090240C333333333333E33F0000000000000F901079024090741D01000000000000111010841D405064090740C02480A0340
1001
ACAD
1000
AcDbSavedByObjectVersion
1070
     0
  0
ACAD_PROXY_OBJECT
  5
3F
102
{ACAD_REACTORS
330
2A
102
}
330
2A
100
AcDbZombieObject
 90
      499
 91
      501
 93
      476
310
41D4DAD95D18DA1E51840502408333333333333E33F0000000000000F901079024090741D01000000000000111010B41D405064090741802480A0340
1001
ACAD
1000
AcDbSavedByObjectVersion
1070
     0
  0
ACAD_PROXY_OBJECT
  5
37
102
{ACAD_REACTORS
330
2A
102
}
330
2A
100
AcDbZombieObject
 90
      499
 91
      501
 93
      412
310
41D51A1A58DAD95B90D409028333333333333E33F0000000000000F9010790141107004050150C41D405064090741402480A0350
1001
ACAD
1000
AcDbSavedByObjectVersion
1070
     0
  0
ACAD_PROXY_OBJECT
  5
30
102
{ACAD_REACTORS
330
2A
102
}
330
2A
100
AcDbZombieObject
 90
      499
 91
      501
 93
      420
310
4255DA5C99599C985B595059028333333333333E33F0000000000000F90107901411070040501600405405064090740C02480A0340
1001
ACAD
1000
AcDbSavedByObjectVersion
1070
     0
  0
ACAD_PROXY_OBJECT
  5
40
102
{ACAD_REACTORS
330
2A
102
}
330
2A
100
AcDbZombieObject
 90
      499
 91
      501
 93
      404
310
41560B54985E51940902404000000000000E03F0000000000000F9010740501907004050150841D405064090740C02480A1B40
1001
ACAD
1000
AcDbSavedByObjectVersion
1070
     0
  0
DICTIONARYVAR
  5
1D7
102
{ACAD_REACTORS
330
1CC
102
}
330
1CC
100
DictionaryVariables
280
     0
  1
1:1
  0
DICTIONARYVAR
  5
1D3
102
{ACAD_REACTORS
330
1CC
102
}
330
1CC
100
DictionaryVariables
280
     0
  1
3.500000
  0
DICTIONARYVAR
  5
1D4
102
{ACAD_REACTORS
330
1CC
102
}
330
1CC
100
DictionaryVariables
280
     0
  1
acadiso.lin
  0
DICTIONARYVAR
  5
1CE
102
{ACAD_REACTORS
330
1CC
102
}
330
1CC
100
DictionaryVariables
280
     0
  1
Standard
  0
DICTIONARYVAR
  5
1CD
102
{ACAD_REACTORS
330
1CC
102
}
330
1CC
100
DictionaryVariables
280
     0
  1
Standard
  0
DICTIONARYVAR
  5
1D5
102
{ACAD_REACTORS
330
1CC
102
}
330
1CC
100
DictionaryVariables
280
     0
  1
2
  0
DICTIONARYVAR
  5
1D6
102
{ACAD_REACTORS
330
1CC
102
}
330
1CC
100
DictionaryVariables
280
     0
  1
1
  0
DICTIONARYVAR
  5
1D8
102
{ACAD_REACTORS
330
1CC
102
}
330
1CC
100
DictionaryVariables
280
     0
  1
1
  0
DICTIONARYVAR
  5
1D0
102
{ACAD_REACTORS
330
1CC
102
}
330
1CC
100
DictionaryVariables
280
     0
  1
80.000000
  0
DICTIONARYVAR
  5
1CF
102
{ACAD_REACTORS
330
1CC
102
}
330
1CC
100
DictionaryVariables
280
     0
  1
5.000000
  0
DICTIONARY
  5
1DB
330
45
100
AcDbDictionary
  3
ACAD_XREC_ROUNDTRIP
360
1DC
1001
ACAD
1000
TREAT_AS_HARD
1070
     1
  0
DICTIONARY
  5
1D9
330
44
100
AcDbDictionary
  3
ACAD_XREC_ROUNDTRIP
360
1DA
1001
ACAD
1000
TREAT_AS_HARD
1070
     1
  0
DICTIONARY
  5
1DD
330
46
100
AcDbDictionary
  3
ACAD_XREC_ROUNDTRIP
360
1DE
1001
ACAD
1000
TREAT_AS_HARD
1070
     1
  0
XRECORD
  5
1DC
102
{ACAD_REACTORS
330
1DB
102
}
330
1DB
100
AcDbXrecord
102
MATERIAL
148
0.0
149
0.0
149
0.0
 93
        0
 94
      127
282
     0
 72
     1
 77
     1
171
     1
175
     1
179
     1
273
     0
  0
XRECORD
  5
1DA
102
{ACAD_REACTORS
330
1D9
102
}
330
1D9
100
AcDbXrecord
102
MATERIAL
148
0.0
149
0.0
149
0.0
 93
        0
 94
      127
282
     0
 72
     1
 77
     1
171
     1
175
     1
179
     1
273
     0
  0
XRECORD
  5
1DE
102
{ACAD_REACTORS
330
1DD
102
}
330
1DD
100
AcDbXrecord
102
MATERIAL
148
0.0
149
0.0
149
0.0
 93
        0
 94
      127
282
     0
 72
     1
 77
     1
171
     1
175
     1
179
     1
273
     0
  0
ENDSEC
  0
EOF
